  0
SECTION
  2
HEADER
  9
$ACADVER
  1
AC1015
  9
$ACADMAINTVER
 70
    13
  9
$DWGCODEPAGE
  3
ANSI_1252
  9
$INSBASE
 10
0.0
 20
0.0
 30
0.0
  9
$EXTMIN
 10
-0.018463006730272
 20
-0.0012968981187953
 30
-0.0015258207003583
  9
$EXTMAX
 10
55.00167859485569
 20
42.54020700817952
 30
0.0000000349246037
  9
$LIMMIN
 10
0.0
 20
0.0
  9
$LIMMAX
 10
55.0
 20
42.5
  9
$ORTHOMODE
 70
     0
  9
$REGENMODE
 70
     1
  9
$FILLMODE
 70
     1
  9
$QTEXTMODE
 70
     0
  9
$MIRRTEXT
 70
     1
  9
$LTSCALE
 40
3.024999999999999
  9
$ATTMODE
 70
     1
  9
$TEXTSIZE
 40
0.2
  9
$TRACEWID
 40
0.05
  9
$TEXTSTYLE
  7
STANDARD
  9
$CLAYER
  8
0
  9
$CELTYPE
  6
BYLAYER
  9
$CECOLOR
 62
   256
  9
$CELTSCALE
 40
1.0
  9
$DISPSILH
 70
     0
  9
$DIMSCALE
 40
1.0
  9
$DIMASZ
 40
0.46875
  9
$DIMEXO
 40
0.0625
  9
$DIMDLI
 40
0.38
  9
$DIMRND
 40
0.0
  9
$DIMDLE
 40
0.0
  9
$DIMEXE
 40
0.18
  9
$DIMTP
 40
0.0
  9
$DIMTM
 40
0.0
  9
$DIMTXT
 40
0.390625
  9
$DIMCEN
 40
0.09
  9
$DIMTSZ
 40
0.0
  9
$DIMTOL
 70
     0
  9
$DIMLIM
 70
     0
  9
$DIMTIH
 70
     1
  9
$DIMTOH
 70
     1
  9
$DIMSE1
 70
     0
  9
$DIMSE2
 70
     0
  9
$DIMTAD
 70
     0
  9
$DIMZIN
 70
     4
  9
$DIMBLK
  1
CLOSED
  9
$DIMASO
 70
     1
  9
$DIMSHO
 70
     1
  9
$DIMPOST
  1
\X
  9
$DIMAPOST
  1

  9
$DIMALT
 70
     1
  9
$DIMALTD
 70
     1
  9
$DIMALTF
 40
25.4
  9
$DIMLFAC
 40
1.0
  9
$DIMTOFL
 70
     0
  9
$DIMTVP
 40
0.0
  9
$DIMTIX
 70
     0
  9
$DIMSOXD
 70
     0
  9
$DIMSAH
 70
     0
  9
$DIMBLK1
  1
CLOSED
  9
$DIMBLK2
  1
CLOSED
  9
$DIMSTYLE
  2
DIMSTYLE_1
  9
$DIMCLRD
 70
     0
  9
$DIMCLRE
 70
     0
  9
$DIMCLRT
 70
     0
  9
$DIMTFAC
 40
1.0
  9
$DIMGAP
 40
1.0
  9
$DIMJUST
 70
     0
  9
$DIMSD1
 70
     0
  9
$DIMSD2
 70
     0
  9
$DIMTOLJ
 70
     1
  9
$DIMTZIN
 70
     4
  9
$DIMALTZ
 70
     0
  9
$DIMALTTZ
 70
     0
  9
$DIMUPT
 70
     0
  9
$DIMDEC
 70
     1
  9
$DIMTDEC
 70
     1
  9
$DIMALTU
 70
     2
  9
$DIMALTTD
 70
     2
  9
$DIMTXSTY
  7
STANDARD
  9
$DIMAUNIT
 70
     0
  9
$DIMADEC
 70
     0
  9
$DIMALTRND
 40
0.0
  9
$DIMAZIN
 70
     0
  9
$DIMDSEP
 70
    46
  9
$DIMATFIT
 70
     3
  9
$DIMFRAC
 70
     0
  9
$DIMLDRBLK
  1
CLOSED
  9
$DIMLUNIT
 70
     2
  9
$DIMLWD
 70
    -2
  9
$DIMLWE
 70
    -2
  9
$DIMTMOVE
 70
     0
  9
$LUNITS
 70
     2
  9
$LUPREC
 70
     4
  9
$SKETCHINC
 40
0.1
  9
$FILLETRAD
 40
0.0
  9
$AUNITS
 70
     0
  9
$AUPREC
 70
     0
  9
$MENU
  1
.
  9
$ELEVATION
 40
0.0
  9
$PELEVATION
 40
0.0
  9
$THICKNESS
 40
0.0
  9
$LIMCHECK
 70
     0
  9
$CHAMFERA
 40
0.0
  9
$CHAMFERB
 40
0.0
  9
$CHAMFERC
 40
0.0
  9
$CHAMFERD
 40
0.0
  9
$SKPOLY
 70
     0
  9
$TDCREATE
 40
2453948.504271007
  9
$TDUCREATE
 40
2453948.795937673
  9
$TDUPDATE
 40
2453948.504886782
  9
$TDUUPDATE
 40
2453948.796553449
  9
$TDINDWG
 40
0.0006159606
  9
$TDUSRTIMER
 40
0.0006159606
  9
$USRTIMER
 70
     1
  9
$ANGBASE
 50
0.0
  9
$ANGDIR
 70
     0
  9
$PDMODE
 70
     3
  9
$PDSIZE
 40
0.3125
  9
$PLINEWID
 40
0.0
  9
$SPLFRAME
 70
     0
  9
$SPLINETYPE
 70
     6
  9
$SPLINESEGS
 70
     8
  9
$HANDSEED
  5
553
  9
$SURFTAB1
 70
     6
  9
$SURFTAB2
 70
     6
  9
$SURFTYPE
 70
     6
  9
$SURFU
 70
     6
  9
$SURFV
 70
     6
  9
$UCSBASE
  2

  9
$UCSNAME
  2

  9
$UCSORG
 10
0.0
 20
0.0
 30
0.0
  9
$UCSXDIR
 10
1.0
 20
0.0
 30
0.0
  9
$UCSYDIR
 10
0.0
 20
1.0
 30
0.0
  9
$UCSORTHOREF
  2

  9
$UCSORTHOVIEW
 70
     0
  9
$UCSORGTOP
 10
0.0
 20
0.0
 30
0.0
  9
$UCSORGBOTTOM
 10
0.0
 20
0.0
 30
0.0
  9
$UCSORGLEFT
 10
0.0
 20
0.0
 30
0.0
  9
$UCSORGRIGHT
 10
0.0
 20
0.0
 30
0.0
  9
$UCSORGFRONT
 10
0.0
 20
0.0
 30
0.0
  9
$UCSORGBACK
 10
0.0
 20
0.0
 30
0.0
  9
$PUCSBASE
  2

  9
$PUCSNAME
  2

  9
$PUCSORG
 10
0.0
 20
0.0
 30
0.0
  9
$PUCSXDIR
 10
1.0
 20
0.0
 30
0.0
  9
$PUCSYDIR
 10
0.0
 20
1.0
 30
0.0
  9
$PUCSORTHOREF
  2

  9
$PUCSORTHOVIEW
 70
     0
  9
$PUCSORGTOP
 10
0.0
 20
0.0
 30
0.0
  9
$PUCSORGBOTTOM
 10
0.0
 20
0.0
 30
0.0
  9
$PUCSORGLEFT
 10
0.0
 20
0.0
 30
0.0
  9
$PUCSORGRIGHT
 10
0.0
 20
0.0
 30
0.0
  9
$PUCSORGFRONT
 10
0.0
 20
0.0
 30
0.0
  9
$PUCSORGBACK
 10
0.0
 20
0.0
 30
0.0
  9
$USERI1
 70
     0
  9
$USERI2
 70
     0
  9
$USERI3
 70
     0
  9
$USERI4
 70
     0
  9
$USERI5
 70
     0
  9
$USERR1
 40
0.0
  9
$USERR2
 40
0.0
  9
$USERR3
 40
0.0
  9
$USERR4
 40
0.0
  9
$USERR5
 40
0.0
  9
$WORLDVIEW
 70
     1
  9
$SHADEDGE
 70
     3
  9
$SHADEDIF
 70
    70
  9
$TILEMODE
 70
     1
  9
$MAXACTVP
 70
    64
  9
$PINSBASE
 10
0.0
 20
0.0
 30
0.0
  9
$PLIMCHECK
 70
     0
  9
$PEXTMIN
 10
1.000000000000000E+20
 20
1.000000000000000E+20
 30
1.000000000000000E+20
  9
$PEXTMAX
 10
-1.000000000000000E+20
 20
-1.000000000000000E+20
 30
-1.000000000000000E+20
  9
$PLIMMIN
 10
0.0
 20
0.0
  9
$PLIMMAX
 10
12.0
 20
9.0
  9
$UNITMODE
 70
     0
  9
$VISRETAIN
 70
     1
  9
$PLINEGEN
 70
     0
  9
$PSLTSCALE
 70
     1
  9
$TREEDEPTH
 70
  3020
  9
$CMLSTYLE
  2
Standard
  9
$CMLJUST
 70
     0
  9
$CMLSCALE
 40
1.0
  9
$PROXYGRAPHICS
 70
     1
  9
$MEASUREMENT
 70
     0
  9
$CELWEIGHT
370
    -1
  9
$ENDCAPS
280
     0
  9
$JOINSTYLE
280
     0
  9
$LWDISPLAY
290
     0
  9
$INSUNITS
 70
     1
  9
$HYPERLINKBASE
  1

  9
$STYLESHEET
  1

  9
$XEDIT
290
     1
  9
$CEPSNTYPE
380
     0
  9
$PSTYLEMODE
290
     1
  9
$FINGERPRINTGUID
  2
{E9D46F6C-8032-4B51-8BDA-F06BFE3EDC54}
  9
$VERSIONGUID
  2
{0B6E96E1-AD1E-40ED-9B6B-3FB2E1B458D2}
  9
$EXTNAMES
290
     1
  9
$PSVPSCALE
 40
0.0
  9
$OLESTARTUP
290
     0
  0
ENDSEC
  0
SECTION
  2
CLASSES
  0
CLASS
  1
ACDBDICTIONARYWDFLT
  2
AcDbDictionaryWithDefault
  3
AutoCAD 2000
 90
        0
280
     0
281
     0
  0
CLASS
  1
ACDBPLACEHOLDER
  2
AcDbPlaceHolder
  3
AutoCAD 2000
 90
        0
280
     0
281
     0
  0
CLASS
  1
LAYOUT
  2
AcDbLayout
  3
AutoCAD 2000
 90
        0
280
     0
281
     0
  0
CLASS
  1
DICTIONARYVAR
  2
AcDbDictionaryVar
  3
AutoCAD 2000
 90
        0
280
     0
281
     0
  0
ENDSEC
  0
SECTION
  2
TABLES
  0
TABLE
  2
VPORT
  5
8
330
0
100
AcDbSymbolTable
 70
     2
  0
VPORT
  5
552
330
8
100
AcDbSymbolTableRecord
100
AcDbViewportTableRecord
  2
*Active
 70
     0
 10
0.0
 20
0.0
 11
1.0
 21
1.0
 12
27.49160779406271
 22
21.26945505503036
 13
0.0
 23
0.0
 14
1.0
 24
1.0
 15
0.0
 25
0.0
 16
0.0
 26
0.0
 36
1.0
 17
0.0
 27
0.0
 37
0.0
 40
42.85858343851917
 41
1.498756218905472
 42
50.0
 43
0.0
 44
0.0
 50
0.0
 51
0.0
 71
     0
 72
  1000
 73
     1
 74
     1
 75
     0
 76
     0
 77
     0
 78
     0
281
     0
 65
     1
110
0.0
120
0.0
130
0.0
111
1.0
121
0.0
131
0.0
112
0.0
122
1.0
132
0.0
 79
     0
146
0.0
  0
ENDTAB
  0
TABLE
  2
LTYPE
  5
5
330
0
100
AcDbSymbolTable
 70
     6
  0
LTYPE
  5
14
330
5
100
AcDbSymbolTableRecord
100
AcDbLinetypeTableRecord
  2
BYBLOCK
 70
     0
  3

 72
    65
 73
     0
 40
0.0
  0
LTYPE
  5
15
330
5
100
AcDbSymbolTableRecord
100
AcDbLinetypeTableRecord
  2
BYLAYER
 70
     0
  3

 72
    65
 73
     0
 40
0.0
  0
LTYPE
  5
16
330
5
100
AcDbSymbolTableRecord
100
AcDbLinetypeTableRecord
  2
CONTINUOUS
 70
     0
  3
Solid line
 72
    65
 73
     0
 40
0.0
  0
LTYPE
  5
1F5
330
5
100
AcDbSymbolTableRecord
100
AcDbLinetypeTableRecord
  2
CENTER
 70
     0
  3
____ _ ____ _ ____ _ ____ _ ____ _ ____ _ ____
 72
    65
 73
     4
 40
0.6
 49
0.375
 74
     0
 49
-0.075
 74
     0
 49
0.075
 74
     0
 49
-0.075
 74
     0
  0
LTYPE
  5
1F6
330
5
100
AcDbSymbolTableRecord
100
AcDbLinetypeTableRecord
  2
HIDDEN
 70
     0
  3
- - - - - - - - - - - - - - - - - - - -
 72
    65
 73
     2
 40
0.2
 49
0.1
 74
     0
 49
-0.1
 74
     0
  0
LTYPE
  5
1F7
330
5
100
AcDbSymbolTableRecord
100
AcDbLinetypeTableRecord
  2
PHANTOM
 70
     0
  3
_____ _ _ _____ _ _ _____ _ _ _____
 72
    65
 73
     6
 40
0.8
 49
0.45
 74
     0
 49
-0.05
 74
     0
 49
0.1
 74
     0
 49
-0.05
 74
     0
 49
0.1
 74
     0
 49
-0.05
 74
     0
  0
LTYPE
  5
1F8
330
5
100
AcDbSymbolTableRecord
100
AcDbLinetypeTableRecord
  2
DOT
 70
     0
  3
. . . . . . . . . . . . . . . . . . . .
 72
    65
 73
     2
 40
0.2
 49
0.1
 74
     0
 49
-0.1
 74
     0
  0
LTYPE
  5
1F9
330
5
100
AcDbSymbolTableRecord
100
AcDbLinetypeTableRecord
  2
DASHED
 70
     0
  3
- - - - - - - - - - - - - - - - - - - -
 72
    65
 73
     2
 40
0.2
 49
0.1
 74
     0
 49
-0.1
 74
     0
  0
ENDTAB
  0
TABLE
  2
LAYER
  5
2
330
0
100
AcDbSymbolTable
 70
    11
  0
LAYER
  5
10
330
2
100
AcDbSymbolTableRecord
100
AcDbLayerTableRecord
  2
0
 70
     0
 62
     7
  6
CONTINUOUS
370
    -3
390
F
  0
LAYER
  5
1FA
330
2
100
AcDbSymbolTableRecord
100
AcDbLayerTableRecord
  2
DEFAULT_1
 70
     0
 62
     7
  6
CENTER
370
    -3
390
F
  0
LAYER
  5
1FB
330
2
100
AcDbSymbolTableRecord
100
AcDbLayerTableRecord
  2
DEFAULT_2
 70
     0
 62
     8
  6
HIDDEN
370
    -3
390
F
  0
LAYER
  5
1FC
330
2
100
AcDbSymbolTableRecord
100
AcDbLayerTableRecord
  2
DEFAULT_3
 70
     0
 62
     7
  6
PHANTOM
370
    -3
390
F
  0
LAYER
  5
1FD
330
2
100
AcDbSymbolTableRecord
100
AcDbLayerTableRecord
  2
_2D_DELETED_OBJS
 70
     0
 62
     7
  6
CONTINUOUS
370
    -3
390
F
  0
LAYER
  5
1FE
330
2
100
AcDbSymbolTableRecord
100
AcDbLayerTableRecord
  2
1_ALL_PLANES
 70
     0
 62
     7
  6
CONTINUOUS
370
    -3
390
F
  0
LAYER
  5
1FF
330
2
100
AcDbSymbolTableRecord
100
AcDbLayerTableRecord
  2
2_ALL_CSYS
 70
     0
 62
     7
  6
CONTINUOUS
370
    -3
390
F
  0
LAYER
  5
200
330
2
100
AcDbSymbolTableRecord
100
AcDbLayerTableRecord
  2
3_ALL_AXES
 70
     0
 62
     7
  6
CONTINUOUS
370
    -3
390
F
  0
LAYER
  5
201
330
2
100
AcDbSymbolTableRecord
100
AcDbLayerTableRecord
  2
4_ALL_POINTS
 70
     0
 62
     7
  6
CONTINUOUS
370
    -3
390
F
  0
LAYER
  5
202
330
2
100
AcDbSymbolTableRecord
100
AcDbLayerTableRecord
  2
DRW_FORMAT
 70
     0
 62
     7
  6
CONTINUOUS
370
    -3
390
F
  0
LAYER
  5
203
330
2
100
AcDbSymbolTableRecord
100
AcDbLayerTableRecord
  2
INTFCLR_1
 70
     0
 62
     7
  6
CONTINUOUS
370
    -3
390
F
  0
ENDTAB
  0
TABLE
  2
STYLE
  5
3
330
0
100
AcDbSymbolTable
 70
     2
  0
STYLE
  5
11
330
3
100
AcDbSymbolTableRecord
100
AcDbTextStyleTableRecord
  2
STANDARD
 70
     0
 40
0.0
 41
0.8
 50
0.0
 71
     0
 42
0.2
  3
txt
  4

  0
STYLE
  5
204
330
3
100
AcDbSymbolTableRecord
100
AcDbTextStyleTableRecord
  2
TEXTSTYLE_1
 70
     0
 40
0.0
 41
0.6
 50
0.0
 71
     0
 42
0.2
  3
txt
  4

  0
ENDTAB
  0
TABLE
  2
VIEW
  5
6
330
0
100
AcDbSymbolTable
 70
     0
  0
ENDTAB
  0
TABLE
  2
UCS
  5
7
330
0
100
AcDbSymbolTable
 70
     0
  0
ENDTAB
  0
TABLE
  2
APPID
  5
9
330
0
100
AcDbSymbolTable
 70
     1
  0
APPID
  5
205
330
9
100
AcDbSymbolTableRecord
100
AcDbRegAppTableRecord
  2
ACAD
 70
     0
  0
ENDTAB
  0
TABLE
  2
DIMSTYLE
  5
A
330
0
100
AcDbSymbolTable
 70
     5
100
AcDbDimStyleTable
 71
     0
  0
DIMSTYLE
105
216
330
A
100
AcDbSymbolTableRecord
100
AcDbDimStyleTableRecord
  2
STANDARD
 70
     0
 41
0.1875
 47
0.001
 48
0.001
 78
     4
140
0.390625
271
     3
272
     3
284
     4
340
11
341
206
342
206
343
206
344
206
  0
DIMSTYLE
105
217
330
A
100
AcDbSymbolTableRecord
100
AcDbDimStyleTableRecord
  2
DIMSTYLE_1
 70
     0
 41
0.46875
 78
     4
140
0.390625
271
     1
272
     1
284
     4
340
11
341
206
342
206
343
206
344
206
  0
DIMSTYLE
105
218
330
A
100
AcDbSymbolTableRecord
100
AcDbDimStyleTableRecord
  2
DIMSTYLE_2
 70
     0
 41
0.46875
 78
     4
140
0.390625
271
     3
272
     3
284
     4
340
11
341
206
342
206
343
206
344
206
  0
DIMSTYLE
105
219
330
A
100
AcDbSymbolTableRecord
100
AcDbDimStyleTableRecord
  2
DIMSTYLE_3
 70
     0
 41
0.46875
 78
     4
140
0.390625
271
     1
272
     1
284
     4
340
11
341
206
342
206
343
206
344
206
  0
DIMSTYLE
105
21A
330
A
100
AcDbSymbolTableRecord
100
AcDbDimStyleTableRecord
  2
DIMSTYLE_4
 70
     0
 41
0.46875
 78
     4
140
0.390625
271
     3
272
     3
284
     4
340
11
341
206
342
206
343
206
344
206
  0
ENDTAB
  0
TABLE
  2
BLOCK_RECORD
  5
1
330
0
100
AcDbSymbolTable
 70
    16
  0
BLOCK_RECORD
  5
1F
330
1
100
AcDbSymbolTableRecord
100
AcDbBlockTableRecord
  2
*MODEL_SPACE
340
22
  0
BLOCK_RECORD
  5
1B
330
1
100
AcDbSymbolTableRecord
100
AcDbBlockTableRecord
  2
*PAPER_SPACE
340
1E
  0
BLOCK_RECORD
  5
206
330
1
100
AcDbSymbolTableRecord
100
AcDbBlockTableRecord
  2
_CLOSED
340
0
102
{BLKREFS
331
267
331
276
331
277
331
285
331
286
331
293
331
294
331
29F
331
2AC
331
2AD
331
2BA
331
2BB
331
2C8
331
2C9
331
2D4
331
2E1
331
2E2
331
2F0
331
2F1
331
2FE
331
2FF
331
30C
331
30D
331
31B
331
31C
331
4A2
331
4A3
331
4AE
331
4AF
331
4BB
331
4BC
331
4C5
331
4D0
331
4D1
331
4DA
331
4F0
331
4F1
331
4FE
331
4FF
331
514
331
515
331
520
331
521
331
52D
331
52E
331
537
331
542
331
543
331
54E
331
54F
102
}
  0
BLOCK_RECORD
  5
207
330
1
100
AcDbSymbolTableRecord
100
AcDbBlockTableRecord
  2
RD010411_BL0
340
0
102
{BLKREFS
331
367
102
}
  0
BLOCK_RECORD
  5
208
330
1
100
AcDbSymbolTableRecord
100
AcDbBlockTableRecord
  2
*D2
340
0
  0
BLOCK_RECORD
  5
209
330
1
100
AcDbSymbolTableRecord
100
AcDbBlockTableRecord
  2
*D3
340
0
  0
BLOCK_RECORD
  5
20A
330
1
100
AcDbSymbolTableRecord
100
AcDbBlockTableRecord
  2
*D4
340
0
  0
BLOCK_RECORD
  5
20B
330
1
100
AcDbSymbolTableRecord
100
AcDbBlockTableRecord
  2
*D5
340
0
  0
BLOCK_RECORD
  5
20C
330
1
100
AcDbSymbolTableRecord
100
AcDbBlockTableRecord
  2
*D6
340
0
  0
BLOCK_RECORD
  5
20D
330
1
100
AcDbSymbolTableRecord
100
AcDbBlockTableRecord
  2
*D7
340
0
  0
BLOCK_RECORD
  5
20E
330
1
100
AcDbSymbolTableRecord
100
AcDbBlockTableRecord
  2
*D8
340
0
  0
BLOCK_RECORD
  5
20F
330
1
100
AcDbSymbolTableRecord
100
AcDbBlockTableRecord
  2
*D9
340
0
  0
BLOCK_RECORD
  5
210
330
1
100
AcDbSymbolTableRecord
100
AcDbBlockTableRecord
  2
*D10
340
0
  0
BLOCK_RECORD
  5
211
330
1
100
AcDbSymbolTableRecord
100
AcDbBlockTableRecord
  2
*D11
340
0
  0
BLOCK_RECORD
  5
212
330
1
100
AcDbSymbolTableRecord
100
AcDbBlockTableRecord
  2
*D12
340
0
  0
BLOCK_RECORD
  5
213
330
1
100
AcDbSymbolTableRecord
100
AcDbBlockTableRecord
  2
*D13
340
0
  0
BLOCK_RECORD
  5
214
330
1
100
AcDbSymbolTableRecord
100
AcDbBlockTableRecord
  2
*D14
340
0
  0
BLOCK_RECORD
  5
215
330
1
100
AcDbSymbolTableRecord
100
AcDbBlockTableRecord
  2
*D15
340
0
  0
ENDTAB
  0
ENDSEC
  0
SECTION
  2
BLOCKS
  0
BLOCK
  5
20
330
1F
100
AcDbEntity
  8
0
100
AcDbBlockBegin
  2
*MODEL_SPACE
 70
     0
 10
0.0
 20
0.0
 30
0.0
  3
*MODEL_SPACE
  1

  0
ENDBLK
  5
21
330
1F
100
AcDbEntity
  8
0
100
AcDbBlockEnd
  0
BLOCK
  5
1C
330
1B
100
AcDbEntity
 67
     1
  8
0
100
AcDbBlockBegin
  2
*PAPER_SPACE
 70
     0
 10
0.0
 20
0.0
 30
0.0
  3
*PAPER_SPACE
  1

  0
ENDBLK
  5
1D
330
1B
100
AcDbEntity
 67
     1
  8
0
100
AcDbBlockEnd
  0
BLOCK
  5
31E
330
206
100
AcDbEntity
  8
0
100
AcDbBlockBegin
  2
_CLOSED
 70
     0
 10
0.0
 20
0.0
 30
0.0
  3
_CLOSED
  1

  0
LINE
  5
31F
330
206
100
AcDbEntity
  8
0
  6
ByBlock
 62
     0
100
AcDbLine
 10
0.0
 20
0.0
 30
0.0
 11
-1.0
 21
0.1666666667
 31
0.0
  0
LINE
  5
320
330
206
100
AcDbEntity
  8
0
  6
ByBlock
 62
     0
100
AcDbLine
 10
-1.0
 20
0.1666666667
 30
0.0
 11
-1.0
 21
-0.1666666667
 31
0.0
  0
LINE
  5
321
330
206
100
AcDbEntity
  8
0
  6
ByBlock
 62
     0
100
AcDbLine
 10
-1.0
 20
-0.1666666667
 30
0.0
 11
0.0
 21
0.0
 31
0.0
  0
LINE
  5
322
330
206
100
AcDbEntity
  8
0
  6
ByBlock
 62
     0
100
AcDbLine
 10
-1.0
 20
0.0
 30
0.0
 11
0.0
 21
0.0
 31
0.0
  0
ENDBLK
  5
323
330
206
100
AcDbEntity
  8
0
  6
ByBlock
 62
     0
100
AcDbBlockEnd
  0
BLOCK
  5
21B
330
207
100
AcDbEntity
  8
DRW_FORMAT
  6
Continuous
 62
     7
100
AcDbBlockBegin
  2
RD010411_BL0
 70
     0
 10
43.2622450003
 20
6.3006517939
 30
0.0
  3
RD010411_BL0
  1

  0
ARC
  5
21C
330
207
100
AcDbEntity
  8
DRW_FORMAT
  6
Continuous
 62
     7
100
AcDbCircle
 10
44.89264892439999
 20
6.5515941877
 30
0.0
 40
0.0309287832
100
AcDbArc
 50
270.0
 51
360.0
  0
LINE
  5
21D
330
207
100
AcDbEntity
  8
DRW_FORMAT
  6
Continuous
 62
     7
100
AcDbLine
 10
44.9235777076
 20
6.5515941877
 30
0.0
 11
44.9235777076
 21
6.6134730107
 31
0.0
  0
ARC
  5
21E
330
207
100
AcDbEntity
  8
DRW_FORMAT
  6
Continuous
 62
     7
100
AcDbCircle
 10
44.89264892439999
 20
6.6134730107
 30
0.0
 40
0.0309287832
100
AcDbArc
 50
0.0
 51
90.0
  0
LINE
  5
21F
330
207
100
AcDbEntity
  8
DRW_FORMAT
  6
Continuous
 62
     7
100
AcDbLine
 10
44.89264892439999
 20
6.6444017939
 30
0.0
 11
44.0611655939
 21
6.6444017939
 31
0.0
  0
SPLINE
  5
220
330
207
100
AcDbEntity
  8
DRW_FORMAT
  6
Continuous
 62
     7
100
AcDbSpline
210
0.0
220
0.0
230
1.0
 70
     8
 71
     3
 72
    13
 73
     9
 74
     0
 42
0.0000000001
 43
0.0000000001
 40
0.0
 40
0.0
 40
0.0
 40
0.0
 40
0.1310616762
 40
0.2699656353
 40
0.4157607805
 40
0.5899807757
 40
0.76586761
 40
0.9948829976
 40
0.9948829976
 40
0.9948829976
 40
0.9948829976
 10
44.0611655939
 20
6.6444017939
 30
0.0
 10
44.0436870576
 20
6.643099981
 30
0.0
 10
44.0076841297
 20
6.640418459299999
 30
0.0
 10
43.9588929926
 20
6.6101846896
 30
0.0
 10
43.92386677850001
 20
6.5594276358
 30
0.0
 10
43.90109092439999
 20
6.497362931799999
 30
0.0
 10
43.8882621728
 20
6.421494062299999
 30
0.0
 10
43.8870809917
 20
6.3678837869
 30
0.0
 10
43.886468813
 20
6.3375574759
 30
0.0
  0
LINE
  5
221
330
207
100
AcDbEntity
  8
DRW_FORMAT
  6
Continuous
 62
     7
100
AcDbLine
 10
43.886468813
 20
6.3375574759
 30
0.0
 11
43.8865230964
 21
6.3328514037
 31
0.0
  0
SPLINE
  5
222
330
207
100
AcDbEntity
  8
DRW_FORMAT
  6
Continuous
 62
     7
100
AcDbSpline
210
0.0
220
0.0
230
1.0
 70
     8
 71
     3
 72
    13
 73
     9
 74
     0
 42
0.0000000001
 43
0.0000000001
 40
0.0
 40
0.0
 40
0.0
 40
0.0
 40
0.2222860645
 40
0.3981728988
 40
0.572392894
 40
0.7181880393000001
 40
0.8570919983999999
 40
0.9881536745999998
 40
0.9881536745999998
 40
0.9881536745999998
 40
0.9881536745999998
 10
43.8865230964
 20
6.3328514037
 30
0.0
 10
43.88712320989999
 20
6.3034165821
 30
0.0
 10
43.8884109774
 20
6.250707082199999
 30
0.0
 10
43.90109091390001
 20
6.1757176703
 30
0.0
 10
43.92386704069999
 20
6.113659907699999
 30
0.0
 10
43.95889216229999
 20
6.0628813127
 30
0.0
 10
44.00768702319999
 20
6.0327198145
 30
0.0
 10
44.0436811735
 20
6.029868116499999
 30
0.0
 10
44.0611655939
 20
6.0285658658
 30
0.0
  0
LINE
  5
223
330
207
100
AcDbEntity
  8
DRW_FORMAT
  6
Continuous
 62
     7
100
AcDbLine
 10
44.0611655939
 20
6.0285658658
 30
0.0
 11
44.8927164296
 21
6.030380810099999
 31
0.0
  0
ARC
  5
224
330
207
100
AcDbEntity
  8
DRW_FORMAT
  6
Continuous
 62
     7
100
AcDbCircle
 10
44.89264892439999
 20
6.0613095195
 30
0.0
 40
0.0309287831
100
AcDbArc
 50
270.125053868
 51
360.0
  0
LINE
  5
225
330
207
100
AcDbEntity
  8
DRW_FORMAT
  6
Continuous
 62
     7
100
AcDbLine
 10
44.9235777076
 20
6.0613095195
 30
0.0
 11
44.9235777076
 21
6.1207724676
 31
0.0
  0
ARC
  5
226
330
207
100
AcDbEntity
  8
DRW_FORMAT
  6
Continuous
 62
     7
100
AcDbCircle
 10
44.89264892439999
 20
6.1207724676
 30
0.0
 40
0.0309287832
100
AcDbArc
 50
0.0
 51
90.0
  0
LINE
  5
227
330
207
100
AcDbEntity
  8
DRW_FORMAT
  6
Continuous
 62
     7
100
AcDbLine
 10
44.89264892439999
 20
6.1517012508
 30
0.0
 11
44.1799540664
 21
6.1517012508
 31
0.0
  0
LINE
  5
228
330
207
100
AcDbEntity
  8
DRW_FORMAT
  6
Continuous
 62
     7
100
AcDbLine
 10
44.14902528329999
 20
6.182630033999999
 30
0.0
 11
44.14902528329999
 21
6.489736621399999
 31
0.0
  0
ARC
  5
229
330
207
100
AcDbEntity
  8
DRW_FORMAT
  6
Continuous
 62
     7
100
AcDbCircle
 10
44.1799540667
 20
6.489736621399999
 30
0.0
 40
0.0309287832
100
AcDbArc
 50
90.0
 51
180.0
  0
LINE
  5
22A
330
207
100
AcDbEntity
  8
DRW_FORMAT
  6
Continuous
 62
     7
100
AcDbLine
 10
44.1799540664
 20
6.5206654046
 30
0.0
 11
44.89264892439999
 21
6.5206654046
 31
0.0
  0
LINE
  5
22B
330
207
100
AcDbEntity
  8
DRW_FORMAT
  6
Continuous
 62
     7
100
AcDbLine
 10
42.9091558359
 20
6.2740328824
 30
0.0
 11
43.5031856714
 21
6.2740328824
 31
0.0
  0
ARC
  5
22C
330
207
100
AcDbEntity
  8
DRW_FORMAT
  6
Continuous
 62
     7
100
AcDbCircle
 10
43.5031856713
 20
6.243104099299999
 30
0.0
 40
0.0309287832
100
AcDbArc
 50
0.0
 51
90.0
  0
LINE
  5
22D
330
207
100
AcDbEntity
  8
DRW_FORMAT
  6
Continuous
 62
     7
100
AcDbLine
 10
43.53411445459999
 20
6.243104099299999
 30
0.0
 11
43.53411445459999
 21
6.179950718699999
 31
0.0
  0
LINE
  5
22E
330
207
100
AcDbEntity
  8
DRW_FORMAT
  6
Continuous
 62
     7
100
AcDbLine
 10
43.5031856714
 20
6.149021935499999
 30
0.0
 11
42.8107353217
 21
6.149021935499999
 31
0.0
  0
ARC
  5
22F
330
207
100
AcDbEntity
  8
DRW_FORMAT
  6
Continuous
 62
     7
100
AcDbCircle
 10
42.8107353217
 20
6.1180931524
 30
0.0
 40
0.0309287832
100
AcDbArc
 50
90.0
 51
180.0
  0
LINE
  5
230
330
207
100
AcDbEntity
  8
DRW_FORMAT
  6
Continuous
 62
     7
100
AcDbLine
 10
42.7798065385
 20
6.1180931524
 30
0.0
 11
42.7798065385
 21
6.059494336799999
 31
0.0
  0
ARC
  5
231
330
207
100
AcDbEntity
  8
DRW_FORMAT
  6
Continuous
 62
     7
100
AcDbCircle
 10
42.8107353217
 20
6.059494336799999
 30
0.0
 40
0.0309287832
100
AcDbArc
 50
180.0
 51
270.0
  0
LINE
  5
232
330
207
100
AcDbEntity
  8
DRW_FORMAT
  6
Continuous
 62
     7
100
AcDbLine
 10
42.8107353217
 20
6.0285655537
 30
0.0
 11
43.6703771143
 21
6.0285655537
 31
0.0
  0
SPLINE
  5
233
330
207
100
AcDbEntity
  8
DRW_FORMAT
  6
Continuous
 62
     7
100
AcDbSpline
210
0.0
220
0.0
230
1.0
 70
     8
 71
     3
 72
    13
 73
     9
 74
     0
 42
0.0000000001
 43
0.0000000001
 40
0.0
 40
0.0
 40
0.0
 40
0.0
 40
0.1604571392
 40
0.3334692485000001
 40
0.4767982758000001
 40
0.6242014838000002
 40
0.7505998515000001
 40
1.0
 40
1.0
 40
1.0
 40
1.0
 10
43.6703771143
 20
6.0285655537
 30
0.0
 10
43.68487078229999
 20
6.029263397899999
 30
0.0
 10
43.71499217479999
 20
6.0307136885
 30
0.0
 10
43.7554969156
 20
6.0482989895
 30
0.0
 10
43.78601857229999
 20
6.077858412699999
 30
0.0
 10
43.8032187262
 20
6.1117471494
 30
0.0
 10
43.8164058277
 20
6.157209237
 30
0.0
 10
43.81694096079999
 20
6.191230906499999
 30
0.0
 10
43.81729610359999
 20
6.2138095197
 30
0.0
  0
SPLINE
  5
234
330
207
100
AcDbEntity
  8
DRW_FORMAT
  6
Continuous
 62
     7
100
AcDbSpline
210
0.0
220
0.0
230
1.0
 70
     8
 71
     3
 72
    13
 73
     9
 74
     0
 42
0.0000000001
 43
0.0000000001
 40
0.0
 40
0.0
 40
0.0
 40
0.0
 40
0.2494001485
 40
0.3757985162
 40
0.5232017242
 40
0.6665307515
 40
0.8395428607999999
 40
1.0
 40
1.0
 40
1.0
 40
1.0
 10
43.81729610359999
 20
6.2138095197
 30
0.0
 10
43.81694096079999
 20
6.2363881333
 30
0.0
 10
43.8164058277
 20
6.270409802399999
 30
0.0
 10
43.8032187262
 20
6.315871890499999
 30
0.0
 10
43.78601857229999
 20
6.3497606272
 30
0.0
 10
43.7554969156
 20
6.3793200499
 30
0.0
 10
43.71499217479999
 20
6.3969053509
 30
0.0
 10
43.68487078229999
 20
6.398355642
 30
0.0
 10
43.6703771143
 20
6.3990534858
 30
0.0
  0
LINE
  5
235
330
207
100
AcDbEntity
  8
DRW_FORMAT
  6
Continuous
 62
     7
100
AcDbLine
 10
43.6703771143
 20
6.3990534858
 30
0.0
 11
43.0842653033
 21
6.3990534858
 31
0.0
  0
LINE
  5
236
330
207
100
AcDbEntity
  8
DRW_FORMAT
  6
Continuous
 62
     7
100
AcDbLine
 10
43.0533365201
 20
6.429982268899999
 30
0.0
 11
43.0533365201
 21
6.4885026296
 31
0.0
  0
ARC
  5
237
330
207
100
AcDbEntity
  8
DRW_FORMAT
  6
Continuous
 62
     7
100
AcDbCircle
 10
43.084265303
 20
6.4885026296
 30
0.0
 40
0.0309287832
100
AcDbArc
 50
90.0
 51
180.0
  0
LINE
  5
238
330
207
100
AcDbEntity
  8
DRW_FORMAT
  6
Continuous
 62
     7
100
AcDbLine
 10
43.0842653033
 20
6.519431412699999
 30
0.0
 11
43.77765555249999
 21
6.519431412699999
 31
0.0
  0
ARC
  5
239
330
207
100
AcDbEntity
  8
DRW_FORMAT
  6
Continuous
 62
     7
100
AcDbCircle
 10
43.77765555249999
 20
6.5503601959
 30
0.0
 40
0.0309287832
100
AcDbArc
 50
270.0
 51
360.0
  0
LINE
  5
23A
330
207
100
AcDbEntity
  8
DRW_FORMAT
  6
Continuous
 62
     7
100
AcDbLine
 10
43.8085843357
 20
6.5503601959
 30
0.0
 11
43.8085843357
 21
6.6134730107
 31
0.0
  0
ARC
  5
23B
330
207
100
AcDbEntity
  8
DRW_FORMAT
  6
Continuous
 62
     7
100
AcDbCircle
 10
43.77765555249999
 20
6.6134730107
 30
0.0
 40
0.0309287832
100
AcDbArc
 50
0.0
 51
90.0
  0
LINE
  5
23C
330
207
100
AcDbEntity
  8
DRW_FORMAT
  6
Continuous
 62
     7
100
AcDbLine
 10
43.77765555249999
 20
6.6444017939
 30
0.0
 11
42.9091558359
 21
6.6444017939
 31
0.0
  0
SPLINE
  5
23D
330
207
100
AcDbEntity
  8
DRW_FORMAT
  6
Continuous
 62
     7
100
AcDbSpline
210
0.0
220
0.0
230
1.0
 70
     8
 71
     3
 72
    13
 73
     9
 74
     0
 42
0.0000000001
 43
0.0000000001
 40
0.0
 40
0.0
 40
0.0
 40
0.0
 40
0.1133740464
 40
0.2392044088
 40
0.3655787964
 40
0.4912154373
 40
0.7445390876000002
 40
1.0
 40
1.0
 40
1.0
 40
1.0
 10
42.9091558359
 20
6.6444017939
 30
0.0
 10
42.8992342705
 20
6.643913110599999
 30
0.0
 10
42.8783010657
 20
6.642882052
 30
0.0
 10
42.8472068607
 20
6.6335920324
 30
0.0
 10
42.8193900641
 20
6.6148325896
 30
0.0
 10
42.7909749583
 20
6.580276980299999
 30
0.0
 10
42.7730943711
 20
6.5260292711
 30
0.0
 10
42.7711552188
 20
6.481550264
 30
0.0
 10
42.7701815702
 20
6.4592173382
 30
0.0
  0
SPLINE
  5
23E
330
207
100
AcDbEntity
  8
DRW_FORMAT
  6
Continuous
 62
     7
100
AcDbSpline
210
0.0
220
0.0
230
1.0
 70
     8
 71
     3
 72
    13
 73
     9
 74
     0
 42
0.0000000001
 43
0.0000000001
 40
0.0
 40
0.0
 40
0.0
 40
0.0
 40
0.2554609124
 40
0.5087845627
 40
0.6344212036
 40
0.7607955912000001
 40
0.8866259535999999
 40
1.0
 40
1.0
 40
1.0
 40
1.0
 10
42.7701815702
 20
6.4592173382
 30
0.0
 10
42.7711552188
 20
6.4368844123
 30
0.0
 10
42.7730943711
 20
6.392405404699999
 30
0.0
 10
42.7909749583
 20
6.3381576961
 30
0.0
 10
42.8193900641
 20
6.303602086699999
 30
0.0
 10
42.8472068607
 20
6.2848426439
 30
0.0
 10
42.8783010657
 20
6.275552624299999
 30
0.0
 10
42.8992342705
 20
6.2745215658
 30
0.0
 10
42.9091558359
 20
6.2740328824
 30
0.0
  0
LINE
  5
23F
330
207
100
AcDbEntity
  8
DRW_FORMAT
  6
Continuous
 62
     7
100
AcDbLine
 10
41.7663712678
 20
6.0285655537
 30
0.0
 11
42.24694001
 21
6.0285655537
 31
0.0
  0
LINE
  5
240
330
207
100
AcDbEntity
  8
DRW_FORMAT
  6
Continuous
 62
     7
100
AcDbLine
 10
42.24694001
 20
6.0285655537
 30
0.0
 11
42.24694001
 21
5.9687974797
 31
0.0
  0
ARC
  5
241
330
207
100
AcDbEntity
  8
DRW_FORMAT
  6
Continuous
 62
     7
100
AcDbCircle
 10
42.2588356958
 20
5.9687974797
 30
0.0
 40
0.0118956858
100
AcDbArc
 50
180.0
 51
270.0
  0
LINE
  5
242
330
207
100
AcDbEntity
  8
DRW_FORMAT
  6
Continuous
 62
     7
100
AcDbLine
 10
42.2588356958
 20
5.9569017939
 30
0.0
 11
42.4440636232
 21
5.9569017939
 31
0.0
  0
ARC
  5
243
330
207
100
AcDbEntity
  8
DRW_FORMAT
  6
Continuous
 62
     7
100
AcDbCircle
 10
42.4440636232
 20
5.9687974797
 30
0.0
 40
0.0118956858
100
AcDbArc
 50
270.0
 51
360.0
  0
LINE
  5
244
330
207
100
AcDbEntity
  8
DRW_FORMAT
  6
Continuous
 62
     7
100
AcDbLine
 10
42.455959309
 20
5.9687974797
 30
0.0
 11
42.455959309
 21
6.0285655537
 31
0.0
  0
LINE
  5
245
330
207
100
AcDbEntity
  8
DRW_FORMAT
  6
Continuous
 62
     7
100
AcDbLine
 10
42.455959309
 20
6.0285655537
 30
0.0
 11
42.55045710989999
 21
6.0285655537
 31
0.0
  0
SPLINE
  5
246
330
207
100
AcDbEntity
  8
DRW_FORMAT
  6
Continuous
 62
     7
100
AcDbSpline
210
0.0
220
0.0
230
1.0
 70
     8
 71
     3
 72
    12
 73
     8
 74
     0
 42
0.0000000001
 43
0.0000000001
 40
0.0
 40
0.0
 40
0.0
 40
0.0
 40
0.2415790084
 40
0.4893269843
 40
0.7378634303000001
 40
0.8656387112
 40
1.0
 40
1.0
 40
1.0
 40
1.0
 10
42.55045710989999
 20
6.0285655537
 30
0.0
 10
42.56740149659999
 20
6.029092335499999
 30
0.0
 10
42.6017229626
 20
6.0301593514
 30
0.0
 10
42.651948847
 20
6.0480712376
 30
0.0
 10
42.6824520153
 20
6.0818841383
 30
0.0
 10
42.6958906987
 20
6.1156694811
 30
0.0
 10
42.6961328834
 20
6.134177020399999
 30
0.0
 10
42.69625701819999
 20
6.1436632845
 30
0.0
  0
LINE
  5
247
330
207
100
AcDbEntity
  8
DRW_FORMAT
  6
Continuous
 62
     7
100
AcDbLine
 10
42.69625701819999
 20
6.1436632845
 30
0.0
 11
42.69625701819999
 21
6.5285817608
 31
0.0
  0
SPLINE
  5
248
330
207
100
AcDbEntity
  8
DRW_FORMAT
  6
Continuous
 62
     7
100
AcDbSpline
210
0.0
220
0.0
230
1.0
 70
     8
 71
     3
 72
    12
 73
     8
 74
     0
 42
0.0000000001
 43
0.0000000001
 40
0.0
 40
0.0
 40
0.0
 40
0.0
 40
0.1343612888
 40
0.2621365697
 40
0.5106730157000001
 40
0.7584209916
 40
1.0
 40
1.0
 40
1.0
 40
1.0
 10
42.69625701819999
 20
6.5285817608
 30
0.0
 10
42.6961328834
 20
6.538068025399999
 30
0.0
 10
42.6958906987
 20
6.5565755647
 30
0.0
 10
42.6824520153
 20
6.5903609075
 30
0.0
 10
42.651948847
 20
6.6241738082
 30
0.0
 10
42.6017229626
 20
6.642085693899999
 30
0.0
 10
42.56740149659999
 20
6.643152709799999
 30
0.0
 10
42.55045710989999
 20
6.643679491699999
 30
0.0
  0
LINE
  5
249
330
207
100
AcDbEntity
  8
DRW_FORMAT
  6
Continuous
 62
     7
100
AcDbLine
 10
42.55045710989999
 20
6.643679491699999
 30
0.0
 11
41.7663712678
 21
6.643679491699999
 31
0.0
  0
SPLINE
  5
24A
330
207
100
AcDbEntity
  8
DRW_FORMAT
  6
Continuous
 62
     7
100
AcDbSpline
210
0.0
220
0.0
230
1.0
 70
     8
 71
     3
 72
    12
 73
     8
 74
     0
 42
0.0000000001
 43
0.0000000001
 40
0.0
 40
0.0
 40
0.0
 40
0.0
 40
0.1341799809
 40
0.2908319589999999
 40
0.5815217441
 40
0.7607838570000001
 40
1.0
 40
1.0
 40
1.0
 40
1.0
 10
41.7663712678
 20
6.643679491699999
 30
0.0
 10
41.7492689635
 20
6.640756545599999
 30
0.0
 10
41.7122001208
 20
6.634421127899999
 30
0.0
 10
41.6498006731
 20
6.587802645499999
 30
0.0
 10
41.6202451279
 20
6.509371730399999
 30
0.0
 10
41.6029524427
 20
6.4204630594
 30
0.0
 10
41.601654335
 20
6.366687042799999
 30
0.0
 10
41.6009122931
 20
6.3359468762
 30
0.0
  0
SPLINE
  5
24B
330
207
100
AcDbEntity
  8
DRW_FORMAT
  6
Continuous
 62
     7
100
AcDbSpline
210
0.0
220
0.0
230
1.0
 70
     8
 71
     3
 72
    12
 73
     8
 74
     0
 42
0.0000000001
 43
0.0000000001
 40
0.0
 40
0.0
 40
0.0
 40
0.0
 40
0.2392679579
 40
0.4185688994
 40
0.7093216488
 40
0.8660075581
 40
1.0
 40
1.0
 40
1.0
 40
1.0
 10
41.6009122931
 20
6.3359468762
 30
0.0
 10
41.60165463139999
 20
6.305207907699999
 30
0.0
 10
41.60295325729999
 20
6.2514339871
 30
0.0
 10
41.6202422111
 20
6.1625102286
 30
0.0
 10
41.6498158139
 20
6.084152331599999
 30
0.0
 10
41.71215029499999
 20
6.0373824695
 30
0.0
 10
41.7492634263
 20
6.0313474735
 30
0.0
 10
41.7663712678
 20
6.0285655537
 30
0.0
  0
LINE
  5
24C
330
207
100
AcDbEntity
  8
DRW_FORMAT
  6
Continuous
 62
     7
100
AcDbLine
 10
42.5378721323
 20
6.186931277
 30
0.0
 11
42.5378721323
 21
6.495338772799999
 31
0.0
  0
ARC
  5
24D
330
207
100
AcDbEntity
  8
DRW_FORMAT
  6
Continuous
 62
     7
100
AcDbCircle
 10
41.8889972901
 20
6.186931277
 30
0.0
 40
0.0309287832
100
AcDbArc
 50
180.0
 51
270.0
  0
LINE
  5
24E
330
207
100
AcDbEntity
  8
DRW_FORMAT
  6
Continuous
 62
     7
100
AcDbLine
 10
41.8889972901
 20
6.156002493899999
 30
0.0
 11
42.24423452279999
 21
6.156002493899999
 31
0.0
  0
LINE
  5
24F
330
207
100
AcDbEntity
  8
DRW_FORMAT
  6
Continuous
 62
     7
100
AcDbLine
 10
42.24423452279999
 20
6.156002493899999
 30
0.0
 11
42.24423452279999
 21
6.21558538
 31
0.0
  0
ARC
  5
250
330
207
100
AcDbEntity
  8
DRW_FORMAT
  6
Continuous
 62
     7
100
AcDbCircle
 10
42.2561302088
 20
6.21558538
 30
0.0
 40
0.0118956858
100
AcDbArc
 50
90.0
 51
180.0
  0
LINE
  5
251
330
207
100
AcDbEntity
  8
DRW_FORMAT
  6
Continuous
 62
     7
100
AcDbLine
 10
42.2561302086
 20
6.2274810658
 30
0.0
 11
42.4404141728
 21
6.2274810658
 31
0.0
  0
ARC
  5
252
330
207
100
AcDbEntity
  8
DRW_FORMAT
  6
Continuous
 62
     7
100
AcDbCircle
 10
42.4404141724
 20
6.215585380399999
 30
0.0
 40
0.0118956858
100
AcDbArc
 50
0.0
 51
90.0
  0
LINE
  5
253
330
207
100
AcDbEntity
  8
DRW_FORMAT
  6
Continuous
 62
     7
100
AcDbLine
 10
42.4523098587
 20
6.156002493899999
 30
0.0
 11
42.5069433492
 21
6.156002493899999
 31
0.0
  0
ARC
  5
254
330
207
100
AcDbEntity
  8
DRW_FORMAT
  6
Continuous
 62
     7
100
AcDbCircle
 10
42.5069433492
 20
6.186931277
 30
0.0
 40
0.0309287832
100
AcDbArc
 50
270.0
 51
360.0
  0
LINE
  5
255
330
207
100
AcDbEntity
  8
DRW_FORMAT
  6
Continuous
 62
     7
100
AcDbLine
 10
42.4523098587
 20
6.156002493899999
 30
0.0
 11
42.4523098587
 21
6.21558538
 31
0.0
  0
LINE
  5
256
330
207
100
AcDbEntity
  8
DRW_FORMAT
  6
Continuous
 62
     7
100
AcDbLine
 10
41.8580685069
 20
6.186931277
 30
0.0
 11
41.8580685069
 21
6.495338772799999
 31
0.0
  0
ARC
  5
257
330
207
100
AcDbEntity
  8
DRW_FORMAT
  6
Continuous
 62
     7
100
AcDbCircle
 10
41.8889972905
 20
6.495338772799999
 30
0.0
 40
0.0309287832
100
AcDbArc
 50
90.0
 51
180.0
  0
LINE
  5
258
330
207
100
AcDbEntity
  8
DRW_FORMAT
  6
Continuous
 62
     7
100
AcDbLine
 10
41.8889972901
 20
6.526267556
 30
0.0
 11
42.5069433492
 21
6.526267556
 31
0.0
  0
ARC
  5
259
330
207
100
AcDbEntity
  8
DRW_FORMAT
  6
Continuous
 62
     7
100
AcDbCircle
 10
42.5069433494
 20
6.4953387726
 30
0.0
 40
0.0309287832
100
AcDbArc
 50
0.0000000277
 51
90.00000002770001
  0
ARC
  5
25A
330
207
100
AcDbEntity
  8
DRW_FORMAT
  6
Continuous
 62
     7
100
AcDbCircle
 10
43.0842653033
 20
6.429982268899999
 30
0.0
 40
0.0309287832
100
AcDbArc
 50
180.0
 51
270.0
  0
ARC
  5
25B
330
207
100
AcDbEntity
  8
DRW_FORMAT
  6
Continuous
 62
     7
100
AcDbCircle
 10
43.5031856714
 20
6.179950718699999
 30
0.0
 40
0.0309287832
100
AcDbArc
 50
270.0
 51
360.0
  0
ARC
  5
25C
330
207
100
AcDbEntity
  8
DRW_FORMAT
  6
Continuous
 62
     7
100
AcDbCircle
 10
44.1799540664
 20
6.182630033999999
 30
0.0
 40
0.0309287832
100
AcDbArc
 50
180.0
 51
270.0
  0
ENDBLK
  5
25D
330
207
100
AcDbEntity
  8
0
  6
ByBlock
 62
     0
100
AcDbBlockEnd
  0
BLOCK
  5
25E
330
208
100
AcDbEntity
  8
0
  6
Continuous
 62
     7
100
AcDbBlockBegin
  2
*D2
 70
     1
 10
0.0
 20
0.0
 30
0.0
  3
*D2
  1

  0
TEXT
  5
25F
330
208
100
AcDbEntity
  8
0
  6
Continuous
 62
     7
100
AcDbText
 10
9.8702344561
 20
9.155330752299999
 30
0.0
 40
0.390625
  1
(%%c
 41
1.066666666699999
100
AcDbText
  0
TEXT
  5
260
330
208
100
AcDbEntity
  8
0
  6
Continuous
 62
     7
100
AcDbText
 10
12.2660677894
 20
9.155330752299999
 30
0.0
 40
0.390625
  1
)
 41
0.8
100
AcDbText
  0
TEXT
  5
261
330
208
100
AcDbEntity
  8
0
  6
Continuous
 62
     7
100
AcDbText
 10
10.7035677894
 20
9.155330752299999
 30
0.0
 40
0.390625
  1
.35
 41
0.8
100
AcDbText
  0
TEXT
  5
262
330
208
100
AcDbEntity
  8
0
  6
Continuous
 62
     7
100
AcDbText
 10
11.0160677894
 20
8.569393252299999
 30
0.0
 40
0.390625
  1
8,9
 41
0.8
100
AcDbText
  0
TEXT
  5
263
330
208
100
AcDbEntity
  8
0
  6
Continuous
 62
     7
100
AcDbText
 10
10.7035677894
 20
8.569393252299999
 30
0.0
 40
0.390625
  1
[
 41
0.8
100
AcDbText
  0
TEXT
  5
264
330
208
100
AcDbEntity
  8
0
  6
Continuous
 62
     7
100
AcDbText
 10
11.9535677894
 20
8.569393252299999
 30
0.0
 40
0.390625
  1
]
 41
0.8
100
AcDbText
  0
LINE
  5
265
330
208
100
AcDbEntity
  8
0
  6
Continuous
 62
     7
100
AcDbLine
 10
15.5732651666
 20
13.57448591819999
 30
0.0
 11
14.0388474063
 21
9.350643252299999
 31
0.0
  0
LINE
  5
266
330
208
100
AcDbEntity
  8
0
  6
Continuous
 62
     7
100
AcDbLine
 10
14.0388474063
 20
9.350643252299999
 30
0.0
 11
12.7738802894
 21
9.350643252299999
 31
0.0
  0
INSERT
  5
267
330
208
100
AcDbEntity
  8
0
  6
Continuous
 62
     7
100
AcDbBlockReference
  2
_CLOSED
 10
15.5732651666
 20
13.57448591819999
 30
0.0
 41
0.46875
 42
0.46875
 43
0.46875
 50
70.03516600000001
  0
ENDBLK
  5
268
330
208
100
AcDbEntity
  8
0
  6
ByBlock
 62
     0
100
AcDbBlockEnd
  0
BLOCK
  5
269
330
209
100
AcDbEntity
  8
0
  6
Continuous
 62
     7
100
AcDbBlockBegin
  2
*D3
 70
     1
 10
0.0
 20
0.0
 30
0.0
  3
*D3
  1

  0
TEXT
  5
26A
330
209
100
AcDbEntity
  8
0
  6
Continuous
 62
     7
100
AcDbText
 10
25.2595361357
 20
15.9106074849
 30
0.0
 40
0.390625
  1
(
 41
0.8
100
AcDbText
  0
TEXT
  5
26B
330
209
100
AcDbEntity
  8
0
  6
Continuous
 62
     7
100
AcDbText
 10
26.8220361357
 20
15.9106074849
 30
0.0
 40
0.390625
  1
)
 41
0.8
100
AcDbText
  0
TEXT
  5
26C
330
209
100
AcDbEntity
  8
0
  6
Continuous
 62
     7
100
AcDbText
 10
25.5720361357
 20
15.9106074849
 30
0.0
 40
0.390625
  1
2.76
 41
0.8
100
AcDbText
  0
TEXT
  5
26D
330
209
100
AcDbEntity
  8
0
  6
Continuous
 62
     7
100
AcDbText
 10
25.8845361357
 20
15.3246699849
 30
0.0
 40
0.390625
  1
70
 41
0.8
100
AcDbText
  0
TEXT
  5
26E
330
209
100
AcDbEntity
  8
0
  6
Continuous
 62
     7
100
AcDbText
 10
25.5720361357
 20
15.3246699849
 30
0.0
 40
0.390625
  1
[
 41
0.8
100
AcDbText
  0
TEXT
  5
26F
330
209
100
AcDbEntity
  8
0
  6
Continuous
 62
     7
100
AcDbText
 10
26.5095361357
 20
15.3246699849
 30
0.0
 40
0.390625
  1
]
 41
0.8
100
AcDbText
  0
LINE
  5
270
330
209
100
AcDbEntity
  8
0
  6
Continuous
 62
     7
100
AcDbLine
 10
22.0956947819
 20
15.116921588
 30
0.0
 11
24.9470361357
 21
15.116921588
 31
0.0
  0
LINE
  5
271
330
209
100
AcDbEntity
  8
0
  6
Continuous
 62
     7
100
AcDbLine
 10
22.07606857659999
 20
12.36101607619999
 30
0.0
 11
24.9470361357
 21
12.36101607619999
 31
0.0
  0
LINE
  5
272
330
209
100
AcDbEntity
  8
0
  6
Continuous
 62
     7
100
AcDbLine
 10
24.6345361357
 20
15.116921588
 30
0.0
 11
24.6345361357
 21
13.7389688321
 31
0.0
  0
LINE
  5
273
330
209
100
AcDbEntity
  8
0
  6
Continuous
 62
     7
100
AcDbLine
 10
24.6345361357
 20
13.7389688321
 30
0.0
 11
24.6345361357
 21
16.1059199849
 31
0.0
  0
LINE
  5
274
330
209
100
AcDbEntity
  8
0
  6
Continuous
 62
     7
100
AcDbLine
 10
24.6345361357
 20
16.1059199849
 30
0.0
 11
25.0642236357
 21
16.1059199849
 31
0.0
  0
LINE
  5
275
330
209
100
AcDbEntity
  8
0
  6
Continuous
 62
     7
100
AcDbLine
 10
24.6345361357
 20
12.36101607619999
 30
0.0
 11
24.6345361357
 21
13.7389688321
 31
0.0
  0
INSERT
  5
276
330
209
100
AcDbEntity
  8
0
  6
Continuous
 62
     7
100
AcDbBlockReference
  2
_CLOSED
 10
24.6345361357
 20
15.116921588
 30
0.0
 41
0.46875
 42
0.46875
 43
0.46875
 50
90.0
  0
INSERT
  5
277
330
209
100
AcDbEntity
  8
0
  6
Continuous
 62
     7
100
AcDbBlockReference
  2
_CLOSED
 10
24.6345361357
 20
12.36101607619999
 30
0.0
 41
0.46875
 42
0.46875
 43
0.46875
 50
270.0
  0
ENDBLK
  5
278
330
209
100
AcDbEntity
  8
0
  6
ByBlock
 62
     0
100
AcDbBlockEnd
  0
BLOCK
  5
279
330
20A
100
AcDbEntity
  8
0
  6
Continuous
 62
     7
100
AcDbBlockBegin
  2
*D4
 70
     1
 10
0.0
 20
0.0
 30
0.0
  3
*D4
  1

  0
TEXT
  5
27A
330
20A
100
AcDbEntity
  8
0
  6
Continuous
 62
     7
100
AcDbText
 10
5.9289020801
 20
14.1661306988
 30
0.0
 40
0.390625
  1
(
 41
0.8
100
AcDbText
  0
TEXT
  5
27B
330
20A
100
AcDbEntity
  8
0
  6
Continuous
 62
     7
100
AcDbText
 10
7.8039020801
 20
14.1661306988
 30
0.0
 40
0.390625
  1
)
 41
0.8
100
AcDbText
  0
TEXT
  5
27C
330
20A
100
AcDbEntity
  8
0
  6
Continuous
 62
     7
100
AcDbText
 10
6.2414020801
 20
14.1661306988
 30
0.0
 40
0.390625
  1
.28
 41
0.8
100
AcDbText
  0
TEXT
  5
27D
330
20A
100
AcDbEntity
  8
0
  6
Continuous
 62
     7
100
AcDbText
 10
6.5539020801
 20
13.5801931988
 30
0.0
 40
0.390625
  1
7,1
 41
0.8
100
AcDbText
  0
TEXT
  5
27E
330
20A
100
AcDbEntity
  8
0
  6
Continuous
 62
     7
100
AcDbText
 10
6.2414020801
 20
13.5801931988
 30
0.0
 40
0.390625
  1
[
 41
0.8
100
AcDbText
  0
TEXT
  5
27F
330
20A
100
AcDbEntity
  8
0
  6
Continuous
 62
     7
100
AcDbText
 10
7.4914020801
 20
13.5801931988
 30
0.0
 40
0.390625
  1
]
 41
0.8
100
AcDbText
  0
LINE
  5
280
330
20A
100
AcDbEntity
  8
0
  6
Continuous
 62
     7
100
AcDbLine
 10
10.757133928
 20
13.2495987534
 30
0.0
 11
8.274242392499999
 21
13.2495987534
 31
0.0
  0
LINE
  5
281
330
20A
100
AcDbEntity
  8
0
  6
Continuous
 62
     7
100
AcDbLine
 10
10.7568425845
 20
12.96849639119999
 30
0.0
 11
8.274242392499999
 21
12.96849639119999
 31
0.0
  0
LINE
  5
282
330
20A
100
AcDbEntity
  8
0
  6
Continuous
 62
     7
100
AcDbLine
 10
8.586742392499999
 20
13.2495987534
 30
0.0
 11
8.586742392499999
 21
14.3614431988
 31
0.0
  0
LINE
  5
283
330
20A
100
AcDbEntity
  8
0
  6
Continuous
 62
     7
100
AcDbLine
 10
8.586742392499999
 20
14.3614431988
 30
0.0
 11
8.3117145801
 21
14.3614431988
 31
0.0
  0
LINE
  5
284
330
20A
100
AcDbEntity
  8
0
  6
Continuous
 62
     7
100
AcDbLine
 10
8.586742392499999
 20
12.96849639119999
 30
0.0
 11
8.586742392499999
 21
11.71849639119999
 31
0.0
  0
INSERT
  5
285
330
20A
100
AcDbEntity
  8
0
  6
Continuous
 62
     7
100
AcDbBlockReference
  2
_CLOSED
 10
8.586742392499999
 20
13.2495987534
 30
0.0
 41
0.46875
 42
0.46875
 43
0.46875
 50
270.0
  0
INSERT
  5
286
330
20A
100
AcDbEntity
  8
0
  6
Continuous
 62
     7
100
AcDbBlockReference
  2
_CLOSED
 10
8.586742392499999
 20
12.96849639119999
 30
0.0
 41
0.46875
 42
0.46875
 43
0.46875
 50
90.0
  0
ENDBLK
  5
287
330
20A
100
AcDbEntity
  8
0
  6
ByBlock
 62
     0
100
AcDbBlockEnd
  0
BLOCK
  5
288
330
20B
100
AcDbEntity
  8
0
  6
Continuous
 62
     7
100
AcDbBlockBegin
  2
*D5
 70
     1
 10
0.0
 20
0.0
 30
0.0
  3
*D5
  1

  0
TEXT
  5
289
330
20B
100
AcDbEntity
  8
0
  6
Continuous
 62
     7
100
AcDbText
 10
7.032026112999999
 20
10.8415525129
 30
0.0
 40
0.390625
  1
(
 41
0.8
100
AcDbText
  0
TEXT
  5
28A
330
20B
100
AcDbEntity
  8
0
  6
Continuous
 62
     7
100
AcDbText
 10
9.219526112999998
 20
10.8415525129
 30
0.0
 40
0.390625
  1
)
 41
0.8
100
AcDbText
  0
TEXT
  5
28B
330
20B
100
AcDbEntity
  8
0
  6
Continuous
 62
     7
100
AcDbText
 10
7.344526112999999
 20
10.8415525129
 30
0.0
 40
0.390625
  1
1.28
 41
0.8
100
AcDbText
  0
TEXT
  5
28C
330
20B
100
AcDbEntity
  8
0
  6
Continuous
 62
     7
100
AcDbText
 10
7.657026112999999
 20
10.2556150129
 30
0.0
 40
0.390625
  1
32,5
 41
0.8
100
AcDbText
  0
TEXT
  5
28D
330
20B
100
AcDbEntity
  8
0
  6
Continuous
 62
     7
100
AcDbText
 10
7.344526112999999
 20
10.2556150129
 30
0.0
 40
0.390625
  1
[
 41
0.8
100
AcDbText
  0
TEXT
  5
28E
330
20B
100
AcDbEntity
  8
0
  6
Continuous
 62
     7
100
AcDbText
 10
8.907026112999998
 20
10.2556150129
 30
0.0
 40
0.390625
  1
]
 41
0.8
100
AcDbText
  0
LINE
  5
28F
330
20B
100
AcDbEntity
  8
0
  6
Continuous
 62
     7
100
AcDbLine
 10
10.8507342838
 20
12.9527975723
 30
0.0
 11
10.8507342838
 21
10.7243650129
 31
0.0
  0
LINE
  5
290
330
20B
100
AcDbEntity
  8
0
  6
Continuous
 62
     7
100
AcDbLine
 10
12.13183664599999
 20
12.9527975723
 30
0.0
 11
12.13183664599999
 21
10.7243650129
 31
0.0
  0
LINE
  5
291
330
20B
100
AcDbEntity
  8
0
  6
Continuous
 62
     7
100
AcDbLine
 10
10.8507342838
 20
11.0368650129
 30
0.0
 11
9.727338612999998
 21
11.0368650129
 31
0.0
  0
LINE
  5
292
330
20B
100
AcDbEntity
  8
0
  6
Continuous
 62
     7
100
AcDbLine
 10
12.13183664599999
 20
11.0368650129
 30
0.0
 11
13.38183664599999
 21
11.0368650129
 31
0.0
  0
INSERT
  5
293
330
20B
100
AcDbEntity
  8
0
  6
Continuous
 62
     7
100
AcDbBlockReference
  2
_CLOSED
 10
10.8507342838
 20
11.0368650129
 30
0.0
 41
0.46875
 42
0.46875
 43
0.46875
  0
INSERT
  5
294
330
20B
100
AcDbEntity
  8
0
  6
Continuous
 62
     7
100
AcDbBlockReference
  2
_CLOSED
 10
12.13183664599999
 20
11.0368650129
 30
0.0
 41
0.46875
 42
0.46875
 43
0.46875
 50
180.0
  0
ENDBLK
  5
295
330
20B
100
AcDbEntity
  8
0
  6
ByBlock
 62
     0
100
AcDbBlockEnd
  0
BLOCK
  5
296
330
20C
100
AcDbEntity
  8
0
  6
Continuous
 62
     7
100
AcDbBlockBegin
  2
*D6
 70
     1
 10
0.0
 20
0.0
 30
0.0
  3
*D6
  1

  0
TEXT
  5
297
330
20C
100
AcDbEntity
  8
0
  6
Continuous
 62
     7
100
AcDbText
 10
18.3664053528
 20
9.1341922619
 30
0.0
 40
0.390625
  1
(%%c
 41
1.066666666699999
100
AcDbText
  0
TEXT
  5
298
330
20C
100
AcDbEntity
  8
0
  6
Continuous
 62
     7
100
AcDbText
 10
20.7622386861
 20
9.1341922619
 30
0.0
 40
0.390625
  1
)
 41
0.8
100
AcDbText
  0
TEXT
  5
299
330
20C
100
AcDbEntity
  8
0
  6
Continuous
 62
     7
100
AcDbText
 10
19.19973868609999
 20
9.1341922619
 30
0.0
 40
0.390625
  1
.28
 41
0.8
100
AcDbText
  0
TEXT
  5
29A
330
20C
100
AcDbEntity
  8
0
  6
Continuous
 62
     7
100
AcDbText
 10
19.51223868609999
 20
8.5482547619
 30
0.0
 40
0.390625
  1
7,1
 41
0.8
100
AcDbText
  0
TEXT
  5
29B
330
20C
100
AcDbEntity
  8
0
  6
Continuous
 62
     7
100
AcDbText
 10
19.19973868609999
 20
8.5482547619
 30
0.0
 40
0.390625
  1
[
 41
0.8
100
AcDbText
  0
TEXT
  5
29C
330
20C
100
AcDbEntity
  8
0
  6
Continuous
 62
     7
100
AcDbText
 10
20.4497386861
 20
8.5482547619
 30
0.0
 40
0.390625
  1
]
 41
0.8
100
AcDbText
  0
LINE
  5
29D
330
20C
100
AcDbEntity
  8
0
  6
Continuous
 62
     7
100
AcDbLine
 10
16.9098746047
 20
13.601007447
 30
0.0
 11
17.7414053528
 21
9.3295047619
 31
0.0
  0
LINE
  5
29E
330
20C
100
AcDbEntity
  8
0
  6
Continuous
 62
     7
100
AcDbLine
 10
17.7414053528
 20
9.3295047619
 30
0.0
 11
18.1710928528
 21
9.3295047619
 31
0.0
  0
INSERT
  5
29F
330
20C
100
AcDbEntity
  8
0
  6
Continuous
 62
     7
100
AcDbBlockReference
  2
_CLOSED
 10
16.9098746047
 20
13.601007447
 30
0.0
 41
0.46875
 42
0.46875
 43
0.46875
 50
101.015958
  0
ENDBLK
  5
2A0
330
20C
100
AcDbEntity
  8
0
  6
ByBlock
 62
     0
100
AcDbBlockEnd
  0
BLOCK
  5
2A1
330
20D
100
AcDbEntity
  8
0
  6
Continuous
 62
     7
100
AcDbBlockBegin
  2
*D7
 70
     1
 10
0.0
 20
0.0
 30
0.0
  3
*D7
  1

  0
TEXT
  5
2A2
330
20D
100
AcDbEntity
  8
0
  6
Continuous
 62
     7
100
AcDbText
 10
18.2944884742
 20
16.3291862927
 30
0.0
 40
0.390625
  1
(
 41
0.8
100
AcDbText
  0
TEXT
  5
2A3
330
20D
100
AcDbEntity
  8
0
  6
Continuous
 62
     7
100
AcDbText
 10
20.4819884742
 20
16.3291862927
 30
0.0
 40
0.390625
  1
)
 41
0.8
100
AcDbText
  0
TEXT
  5
2A4
330
20D
100
AcDbEntity
  8
0
  6
Continuous
 62
     7
100
AcDbText
 10
18.6069884742
 20
16.3291862927
 30
0.0
 40
0.390625
  1
1.25
 41
0.8
100
AcDbText
  0
TEXT
  5
2A5
330
20D
100
AcDbEntity
  8
0
  6
Continuous
 62
     7
100
AcDbText
 10
18.9194884742
 20
15.74324879269999
 30
0.0
 40
0.390625
  1
31,8
 41
0.8
100
AcDbText
  0
TEXT
  5
2A6
330
20D
100
AcDbEntity
  8
0
  6
Continuous
 62
     7
100
AcDbText
 10
18.6069884742
 20
15.74324879269999
 30
0.0
 40
0.390625
  1
[
 41
0.8
100
AcDbText
  0
TEXT
  5
2A7
330
20D
100
AcDbEntity
  8
0
  6
Continuous
 62
     7
100
AcDbText
 10
20.1694884742
 20
15.74324879269999
 30
0.0
 40
0.390625
  1
]
 41
0.8
100
AcDbText
  0
LINE
  5
2A8
330
20D
100
AcDbEntity
  8
0
  6
Continuous
 62
     7
100
AcDbLine
 10
15.6330177484
 20
15.7200219817
 30
0.0
 11
15.6330177484
 21
16.8369987927
 31
0.0
  0
LINE
  5
2A9
330
20D
100
AcDbEntity
  8
0
  6
Continuous
 62
     7
100
AcDbLine
 10
16.8830177484
 20
14.1452227691
 30
0.0
 11
16.8830177484
 21
16.8369987927
 31
0.0
  0
LINE
  5
2AA
330
20D
100
AcDbEntity
  8
0
  6
Continuous
 62
     7
100
AcDbLine
 10
15.6330177484
 20
16.5244987927
 30
0.0
 11
14.3830177484
 21
16.5244987927
 31
0.0
  0
LINE
  5
2AB
330
20D
100
AcDbEntity
  8
0
  6
Continuous
 62
     7
100
AcDbLine
 10
16.8830177484
 20
16.5244987927
 30
0.0
 11
18.0991759742
 21
16.5244987927
 31
0.0
  0
INSERT
  5
2AC
330
20D
100
AcDbEntity
  8
0
  6
Continuous
 62
     7
100
AcDbBlockReference
  2
_CLOSED
 10
15.6330177484
 20
16.5244987927
 30
0.0
 41
0.46875
 42
0.46875
 43
0.46875
  0
INSERT
  5
2AD
330
20D
100
AcDbEntity
  8
0
  6
Continuous
 62
     7
100
AcDbBlockReference
  2
_CLOSED
 10
16.8830177484
 20
16.5244987927
 30
0.0
 41
0.46875
 42
0.46875
 43
0.46875
 50
180.0
  0
ENDBLK
  5
2AE
330
20D
100
AcDbEntity
  8
0
  6
ByBlock
 62
     0
100
AcDbBlockEnd
  0
BLOCK
  5
2AF
330
20E
100
AcDbEntity
  8
0
  6
Continuous
 62
     7
100
AcDbBlockBegin
  2
*D8
 70
     1
 10
0.0
 20
0.0
 30
0.0
  3
*D8
  1

  0
TEXT
  5
2B0
330
20E
100
AcDbEntity
  8
0
  6
Continuous
 62
     7
100
AcDbText
 10
14.2753423139
 20
25.458060845
 30
0.0
 40
0.390625
  1
(
 41
0.8
100
AcDbText
  0
TEXT
  5
2B1
330
20E
100
AcDbEntity
  8
0
  6
Continuous
 62
     7
100
AcDbText
 10
16.7753423139
 20
25.458060845
 30
0.0
 40
0.390625
  1
)
 41
0.8
100
AcDbText
  0
TEXT
  5
2B2
330
20E
100
AcDbEntity
  8
0
  6
Continuous
 62
     7
100
AcDbText
 10
14.5878423139
 20
25.458060845
 30
0.0
 40
0.390625
  1
12.20
 41
0.8
100
AcDbText
  0
TEXT
  5
2B3
330
20E
100
AcDbEntity
  8
0
  6
Continuous
 62
     7
100
AcDbText
 10
14.9003423139
 20
24.872123345
 30
0.0
 40
0.390625
  1
309,8
 41
0.8
100
AcDbText
  0
TEXT
  5
2B4
330
20E
100
AcDbEntity
  8
0
  6
Continuous
 62
     7
100
AcDbText
 10
14.5878423139
 20
24.872123345
 30
0.0
 40
0.390625
  1
[
 41
0.8
100
AcDbText
  0
TEXT
  5
2B5
330
20E
100
AcDbEntity
  8
0
  6
Continuous
 62
     7
100
AcDbText
 10
16.4628423139
 20
24.872123345
 30
0.0
 40
0.390625
  1
]
 41
0.8
100
AcDbText
  0
LINE
  5
2B6
330
20E
100
AcDbEntity
  8
0
  6
Continuous
 62
     7
100
AcDbLine
 10
9.535379953099999
 20
27.2397528939
 30
0.0
 11
9.535379953099999
 21
25.340873345
 31
0.0
  0
LINE
  5
2B7
330
20E
100
AcDbEntity
  8
0
  6
Continuous
 62
     7
100
AcDbLine
 10
21.73065554369999
 20
27.5767330451
 30
0.0
 11
21.73065554369999
 21
25.340873345
 31
0.0
  0
LINE
  5
2B8
330
20E
100
AcDbEntity
  8
0
  6
Continuous
 62
     7
100
AcDbLine
 10
9.535379953099999
 20
25.653373345
 30
0.0
 11
14.0800298139
 21
25.653373345
 31
0.0
  0
LINE
  5
2B9
330
20E
100
AcDbEntity
  8
0
  6
Continuous
 62
     7
100
AcDbLine
 10
21.73065554369999
 20
25.653373345
 30
0.0
 11
17.2831548139
 21
25.653373345
 31
0.0
  0
INSERT
  5
2BA
330
20E
100
AcDbEntity
  8
0
  6
Continuous
 62
     7
100
AcDbBlockReference
  2
_CLOSED
 10
9.535379953099999
 20
25.653373345
 30
0.0
 41
0.46875
 42
0.46875
 43
0.46875
 50
180.0
  0
INSERT
  5
2BB
330
20E
100
AcDbEntity
  8
0
  6
Continuous
 62
     7
100
AcDbBlockReference
  2
_CLOSED
 10
21.73065554369999
 20
25.653373345
 30
0.0
 41
0.46875
 42
0.46875
 43
0.46875
  0
ENDBLK
  5
2BC
330
20E
100
AcDbEntity
  8
0
  6
ByBlock
 62
     0
100
AcDbBlockEnd
  0
BLOCK
  5
2BD
330
20F
100
AcDbEntity
  8
0
  6
Continuous
 62
     7
100
AcDbBlockBegin
  2
*D9
 70
     1
 10
0.0
 20
0.0
 30
0.0
  3
*D9
  1

  0
TEXT
  5
2BE
330
20F
100
AcDbEntity
  8
0
  6
Continuous
 62
     7
100
AcDbText
 10
38.0531790566
 20
20.1695391971
 30
0.0
 40
0.390625
  1
(
 41
0.8
100
AcDbText
  0
TEXT
  5
2BF
330
20F
100
AcDbEntity
  8
0
  6
Continuous
 62
     7
100
AcDbText
 10
40.55317905659999
 20
20.1695391971
 30
0.0
 40
0.390625
  1
)
 41
0.8
100
AcDbText
  0
TEXT
  5
2C0
330
20F
100
AcDbEntity
  8
0
  6
Continuous
 62
     7
100
AcDbText
 10
38.3656790566
 20
20.1695391971
 30
0.0
 40
0.390625
  1
10.10
 41
0.8
100
AcDbText
  0
TEXT
  5
2C1
330
20F
100
AcDbEntity
  8
0
  6
Continuous
 62
     7
100
AcDbText
 10
38.6781790566
 20
19.5836016971
 30
0.0
 40
0.390625
  1
256,5
 41
0.8
100
AcDbText
  0
TEXT
  5
2C2
330
20F
100
AcDbEntity
  8
0
  6
Continuous
 62
     7
100
AcDbText
 10
38.3656790566
 20
19.5836016971
 30
0.0
 40
0.390625
  1
[
 41
0.8
100
AcDbText
  0
TEXT
  5
2C3
330
20F
100
AcDbEntity
  8
0
  6
Continuous
 62
     7
100
AcDbText
 10
40.24067905659999
 20
19.5836016971
 30
0.0
 40
0.390625
  1
]
 41
0.8
100
AcDbText
  0
LINE
  5
2C4
330
20F
100
AcDbEntity
  8
0
  6
Continuous
 62
     7
100
AcDbLine
 10
34.1107960603
 20
14.68262040769999
 30
0.0
 11
34.1107960603
 21
20.6773516971
 31
0.0
  0
LINE
  5
2C5
330
20F
100
AcDbEntity
  8
0
  6
Continuous
 62
     7
100
AcDbLine
 10
44.20922125709999
 20
15.273171588
 30
0.0
 11
44.20922125709999
 21
20.6773516971
 31
0.0
  0
LINE
  5
2C6
330
20F
100
AcDbEntity
  8
0
  6
Continuous
 62
     7
100
AcDbLine
 10
34.1107960603
 20
20.3648516971
 30
0.0
 11
37.8578665566
 21
20.3648516971
 31
0.0
  0
LINE
  5
2C7
330
20F
100
AcDbEntity
  8
0
  6
Continuous
 62
     7
100
AcDbLine
 10
44.20922125709999
 20
20.3648516971
 30
0.0
 11
41.06099155659999
 21
20.3648516971
 31
0.0
  0
INSERT
  5
2C8
330
20F
100
AcDbEntity
  8
0
  6
Continuous
 62
     7
100
AcDbBlockReference
  2
_CLOSED
 10
34.1107960603
 20
20.3648516971
 30
0.0
 41
0.46875
 42
0.46875
 43
0.46875
 50
180.0
  0
INSERT
  5
2C9
330
20F
100
AcDbEntity
  8
0
  6
Continuous
 62
     7
100
AcDbBlockReference
  2
_CLOSED
 10
44.20922125709999
 20
20.3648516971
 30
0.0
 41
0.46875
 42
0.46875
 43
0.46875
  0
ENDBLK
  5
2CA
330
20F
100
AcDbEntity
  8
0
  6
ByBlock
 62
     0
100
AcDbBlockEnd
  0
BLOCK
  5
2CB
330
210
100
AcDbEntity
  8
0
  6
Continuous
 62
     7
100
AcDbBlockBegin
  2
*D10
 70
     1
 10
0.0
 20
0.0
 30
0.0
  3
*D10
  1

  0
TEXT
  5
2CC
330
210
100
AcDbEntity
  8
0
  6
Continuous
 62
     7
100
AcDbText
 10
36.1103087946
 20
11.15417781369999
 30
0.0
 40
0.390625
  1
(%%c
 41
1.066666666699999
100
AcDbText
  0
TEXT
  5
2CD
330
210
100
AcDbEntity
  8
0
  6
Continuous
 62
     7
100
AcDbText
 10
38.506142128
 20
11.15417781369999
 30
0.0
 40
0.390625
  1
)
 41
0.8
100
AcDbText
  0
TEXT
  5
2CE
330
210
100
AcDbEntity
  8
0
  6
Continuous
 62
     7
100
AcDbText
 10
36.943642128
 20
11.15417781369999
 30
0.0
 40
0.390625
  1
.39
 41
0.8
100
AcDbText
  0
TEXT
  5
2CF
330
210
100
AcDbEntity
  8
0
  6
Continuous
 62
     7
100
AcDbText
 10
37.256142128
 20
10.5682403137
 30
0.0
 40
0.390625
  1
9,8
 41
0.8
100
AcDbText
  0
TEXT
  5
2D0
330
210
100
AcDbEntity
  8
0
  6
Continuous
 62
     7
100
AcDbText
 10
36.943642128
 20
10.5682403137
 30
0.0
 40
0.390625
  1
[
 41
0.8
100
AcDbText
  0
TEXT
  5
2D1
330
210
100
AcDbEntity
  8
0
  6
Continuous
 62
     7
100
AcDbText
 10
38.193642128
 20
10.5682403137
 30
0.0
 40
0.390625
  1
]
 41
0.8
100
AcDbText
  0
LINE
  5
2D2
330
210
100
AcDbEntity
  8
0
  6
Continuous
 62
     7
100
AcDbLine
 10
34.998880714
 20
13.550600344
 30
0.0
 11
35.4853087946
 21
11.34949031369999
 31
0.0
  0
LINE
  5
2D3
330
210
100
AcDbEntity
  8
0
  6
Continuous
 62
     7
100
AcDbLine
 10
35.4853087946
 20
11.34949031369999
 30
0.0
 11
35.9149962946
 21
11.34949031369999
 31
0.0
  0
INSERT
  5
2D4
330
210
100
AcDbEntity
  8
0
  6
Continuous
 62
     7
100
AcDbBlockReference
  2
_CLOSED
 10
34.998880714
 20
13.550600344
 30
0.0
 41
0.46875
 42
0.46875
 43
0.46875
 50
102.4616299999999
  0
ENDBLK
  5
2D5
330
210
100
AcDbEntity
  8
0
  6
ByBlock
 62
     0
100
AcDbBlockEnd
  0
BLOCK
  5
2D6
330
211
100
AcDbEntity
  8
0
  6
Continuous
 62
     7
100
AcDbBlockBegin
  2
*D11
 70
     1
 10
0.0
 20
0.0
 30
0.0
  3
*D11
  1

  0
TEXT
  5
2D7
330
211
100
AcDbEntity
  8
0
  6
Continuous
 62
     7
100
AcDbText
 10
38.92268183249999
 20
18.1323795655
 30
0.0
 40
0.390625
  1
(
 41
0.8
100
AcDbText
  0
TEXT
  5
2D8
330
211
100
AcDbEntity
  8
0
  6
Continuous
 62
     7
100
AcDbText
 10
41.42268183249999
 20
18.1323795655
 30
0.0
 40
0.390625
  1
)
 41
0.8
100
AcDbText
  0
TEXT
  5
2D9
330
211
100
AcDbEntity
  8
0
  6
Continuous
 62
     7
100
AcDbText
 10
39.23518183249999
 20
18.1323795655
 30
0.0
 40
0.390625
  1
7.75
 41
0.8
100
AcDbText
  0
TEXT
  5
2DA
330
211
100
AcDbEntity
  8
0
  6
Continuous
 62
     7
100
AcDbText
 10
39.54768183249999
 20
17.5464420655
 30
0.0
 40
0.390625
  1
196,9
 41
0.8
100
AcDbText
  0
TEXT
  5
2DB
330
211
100
AcDbEntity
  8
0
  6
Continuous
 62
     7
100
AcDbText
 10
39.23518183249999
 20
17.5464420655
 30
0.0
 40
0.390625
  1
[
 41
0.8
100
AcDbText
  0
TEXT
  5
2DC
330
211
100
AcDbEntity
  8
0
  6
Continuous
 62
     7
100
AcDbText
 10
41.11018183249999
 20
17.5464420655
 30
0.0
 40
0.390625
  1
]
 41
0.8
100
AcDbText
  0
LINE
  5
2DD
330
211
100
AcDbEntity
  8
0
  6
Continuous
 62
     7
100
AcDbLine
 10
36.4572527532
 20
14.1452227691
 30
0.0
 11
36.4572527532
 21
18.6401920655
 31
0.0
  0
LINE
  5
2DE
330
211
100
AcDbEntity
  8
0
  6
Continuous
 62
     7
100
AcDbLine
 10
44.20922125709999
 20
15.273171588
 30
0.0
 11
44.20922125709999
 21
18.6401920655
 31
0.0
  0
LINE
  5
2DF
330
211
100
AcDbEntity
  8
0
  6
Continuous
 62
     7
100
AcDbLine
 10
36.4572527532
 20
18.3276920655
 30
0.0
 11
38.72736933249999
 21
18.3276920655
 31
0.0
  0
LINE
  5
2E0
330
211
100
AcDbEntity
  8
0
  6
Continuous
 62
     7
100
AcDbLine
 10
44.20922125709999
 20
18.3276920655
 30
0.0
 11
41.93049433249999
 21
18.3276920655
 31
0.0
  0
INSERT
  5
2E1
330
211
100
AcDbEntity
  8
0
  6
Continuous
 62
     7
100
AcDbBlockReference
  2
_CLOSED
 10
36.4572527532
 20
18.3276920655
 30
0.0
 41
0.46875
 42
0.46875
 43
0.46875
 50
180.0
  0
INSERT
  5
2E2
330
211
100
AcDbEntity
  8
0
  6
Continuous
 62
     7
100
AcDbBlockReference
  2
_CLOSED
 10
44.20922125709999
 20
18.3276920655
 30
0.0
 41
0.46875
 42
0.46875
 43
0.46875
  0
ENDBLK
  5
2E3
330
211
100
AcDbEntity
  8
0
  6
ByBlock
 62
     0
100
AcDbBlockEnd
  0
BLOCK
  5
2E4
330
212
100
AcDbEntity
  8
0
  6
Continuous
 62
     7
100
AcDbBlockBegin
  2
*D12
 70
     1
 10
0.0
 20
0.0
 30
0.0
  3
*D12
  1

  0
TEXT
  5
2E5
330
212
100
AcDbEntity
  8
0
  6
Continuous
 62
     7
100
AcDbText
 10
24.2773965331
 20
11.29212022539999
 30
0.0
 40
0.390625
  1
(
 41
0.8
100
AcDbText
  0
TEXT
  5
2E6
330
212
100
AcDbEntity
  8
0
  6
Continuous
 62
     7
100
AcDbText
 10
25.8398965331
 20
11.29212022539999
 30
0.0
 40
0.390625
  1
)
 41
0.8
100
AcDbText
  0
TEXT
  5
2E7
330
212
100
AcDbEntity
  8
0
  6
Continuous
 62
     7
100
AcDbText
 10
24.5898965331
 20
11.29212022539999
 30
0.0
 40
0.390625
  1
.63
 41
0.8
100
AcDbText
  0
TEXT
  5
2E8
330
212
100
AcDbEntity
  8
0
  6
Continuous
 62
     7
100
AcDbText
 10
24.9023965331
 20
10.70618272539999
 30
0.0
 40
0.390625
  1
16
 41
0.8
100
AcDbText
  0
TEXT
  5
2E9
330
212
100
AcDbEntity
  8
0
  6
Continuous
 62
     7
100
AcDbText
 10
24.5898965331
 20
10.70618272539999
 30
0.0
 40
0.390625
  1
[
 41
0.8
100
AcDbText
  0
TEXT
  5
2EA
330
212
100
AcDbEntity
  8
0
  6
Continuous
 62
     7
100
AcDbText
 10
25.5273965331
 20
10.70618272539999
 30
0.0
 40
0.390625
  1
]
 41
0.8
100
AcDbText
  0
LINE
  5
2EB
330
212
100
AcDbEntity
  8
0
  6
Continuous
 62
     7
100
AcDbLine
 10
22.87014318949999
 20
13.7389688321
 30
0.0
 11
23.9648965331
 21
13.7389688321
 31
0.0
  0
LINE
  5
2EC
330
212
100
AcDbEntity
  8
0
  6
Continuous
 62
     7
100
AcDbLine
 10
20.4310000319
 20
13.1090475723
 30
0.0
 11
23.9648965331
 21
13.1090475723
 31
0.0
  0
LINE
  5
2ED
330
212
100
AcDbEntity
  8
0
  6
Continuous
 62
     7
100
AcDbLine
 10
23.6523965331
 20
13.7389688321
 30
0.0
 11
23.6523965331
 21
14.9889688321
 31
0.0
  0
LINE
  5
2EE
330
212
100
AcDbEntity
  8
0
  6
Continuous
 62
     7
100
AcDbLine
 10
23.6523965331
 20
13.1090475723
 30
0.0
 11
23.6523965331
 21
11.48743272539999
 31
0.0
  0
LINE
  5
2EF
330
212
100
AcDbEntity
  8
0
  6
Continuous
 62
     7
100
AcDbLine
 10
23.6523965331
 20
11.48743272539999
 30
0.0
 11
24.0820840331
 21
11.48743272539999
 31
0.0
  0
INSERT
  5
2F0
330
212
100
AcDbEntity
  8
0
  6
Continuous
 62
     7
100
AcDbBlockReference
  2
_CLOSED
 10
23.6523965331
 20
13.7389688321
 30
0.0
 41
0.46875
 42
0.46875
 43
0.46875
 50
270.0
  0
INSERT
  5
2F1
330
212
100
AcDbEntity
  8
0
  6
Continuous
 62
     7
100
AcDbBlockReference
  2
_CLOSED
 10
23.6523965331
 20
13.1090475723
 30
0.0
 41
0.46875
 42
0.46875
 43
0.46875
 50
90.0
  0
ENDBLK
  5
2F2
330
212
100
AcDbEntity
  8
0
  6
ByBlock
 62
     0
100
AcDbBlockEnd
  0
BLOCK
  5
2F3
330
213
100
AcDbEntity
  8
0
  6
Continuous
 62
     7
100
AcDbBlockBegin
  2
*D13
 70
     1
 10
0.0
 20
0.0
 30
0.0
  3
*D13
  1

  0
TEXT
  5
2F4
330
213
100
AcDbEntity
  8
0
  6
Continuous
 62
     7
100
AcDbText
 10
7.2095866182
 20
17.30420062529999
 30
0.0
 40
0.390625
  1
(
 41
0.8
100
AcDbText
  0
TEXT
  5
2F5
330
213
100
AcDbEntity
  8
0
  6
Continuous
 62
     7
100
AcDbText
 10
9.709586618200001
 20
17.30420062529999
 30
0.0
 40
0.390625
  1
)
 41
0.8
100
AcDbText
  0
TEXT
  5
2F6
330
213
100
AcDbEntity
  8
0
  6
Continuous
 62
     7
100
AcDbText
 10
7.5220866182
 20
17.30420062529999
 30
0.0
 40
0.390625
  1
4.14
 41
0.8
100
AcDbText
  0
TEXT
  5
2F7
330
213
100
AcDbEntity
  8
0
  6
Continuous
 62
     7
100
AcDbText
 10
7.8345866182
 20
16.71826312529999
 30
0.0
 40
0.390625
  1
105,2
 41
0.8
100
AcDbText
  0
TEXT
  5
2F8
330
213
100
AcDbEntity
  8
0
  6
Continuous
 62
     7
100
AcDbText
 10
7.5220866182
 20
16.71826312529999
 30
0.0
 40
0.390625
  1
[
 41
0.8
100
AcDbText
  0
TEXT
  5
2F9
330
213
100
AcDbEntity
  8
0
  6
Continuous
 62
     7
100
AcDbText
 10
9.397086618200001
 20
16.71826312529999
 30
0.0
 40
0.390625
  1
]
 41
0.8
100
AcDbText
  0
LINE
  5
2FA
330
213
100
AcDbEntity
  8
0
  6
Continuous
 62
     7
100
AcDbLine
 10
15.6330177484
 20
15.7200219817
 30
0.0
 11
15.6330177484
 21
17.81201312529999
 31
0.0
  0
LINE
  5
2FB
330
213
100
AcDbEntity
  8
0
  6
Continuous
 62
     7
100
AcDbLine
 10
11.4912854649
 20
15.489064739
 30
0.0
 11
11.4912854649
 21
17.81201312529999
 31
0.0
  0
LINE
  5
2FC
330
213
100
AcDbEntity
  8
0
  6
Continuous
 62
     7
100
AcDbLine
 10
15.6330177484
 20
17.49951312529999
 30
0.0
 11
16.8830177484
 21
17.49951312529999
 31
0.0
  0
LINE
  5
2FD
330
213
100
AcDbEntity
  8
0
  6
Continuous
 62
     7
100
AcDbLine
 10
11.4912854649
 20
17.49951312529999
 30
0.0
 11
10.2173991182
 21
17.49951312529999
 31
0.0
  0
INSERT
  5
2FE
330
213
100
AcDbEntity
  8
0
  6
Continuous
 62
     7
100
AcDbBlockReference
  2
_CLOSED
 10
15.6330177484
 20
17.49951312529999
 30
0.0
 41
0.46875
 42
0.46875
 43
0.46875
 50
180.0
  0
INSERT
  5
2FF
330
213
100
AcDbEntity
  8
0
  6
Continuous
 62
     7
100
AcDbBlockReference
  2
_CLOSED
 10
11.4912854649
 20
17.49951312529999
 30
0.0
 41
0.46875
 42
0.46875
 43
0.46875
  0
ENDBLK
  5
300
330
213
100
AcDbEntity
  8
0
  6
ByBlock
 62
     0
100
AcDbBlockEnd
  0
BLOCK
  5
301
330
214
100
AcDbEntity
  8
0
  6
Continuous
 62
     7
100
AcDbBlockBegin
  2
*D14
 70
     1
 10
0.0
 20
0.0
 30
0.0
  3
*D14
  1

  0
TEXT
  5
302
330
214
100
AcDbEntity
  8
0
  6
Continuous
 62
     7
100
AcDbText
 10
14.03388731089999
 20
39.045244635
 30
0.0
 40
0.390625
  1
(
 41
0.8
100
AcDbText
  0
TEXT
  5
303
330
214
100
AcDbEntity
  8
0
  6
Continuous
 62
     7
100
AcDbText
 10
16.53388731089999
 20
39.045244635
 30
0.0
 40
0.390625
  1
)
 41
0.8
100
AcDbText
  0
TEXT
  5
304
330
214
100
AcDbEntity
  8
0
  6
Continuous
 62
     7
100
AcDbText
 10
14.34638731089999
 20
39.045244635
 30
0.0
 40
0.390625
  1
12.60
 41
0.8
100
AcDbText
  0
TEXT
  5
305
330
214
100
AcDbEntity
  8
0
  6
Continuous
 62
     7
100
AcDbText
 10
14.65888731089999
 20
38.459307135
 30
0.0
 40
0.390625
  1
320,2
 41
0.8
100
AcDbText
  0
TEXT
  5
306
330
214
100
AcDbEntity
  8
0
  6
Continuous
 62
     7
100
AcDbText
 10
14.34638731089999
 20
38.459307135
 30
0.0
 40
0.390625
  1
[
 41
0.8
100
AcDbText
  0
TEXT
  5
307
330
214
100
AcDbEntity
  8
0
  6
Continuous
 62
     7
100
AcDbText
 10
16.22138731089999
 20
38.459307135
 30
0.0
 40
0.390625
  1
]
 41
0.8
100
AcDbText
  0
LINE
  5
308
330
214
100
AcDbEntity
  8
0
  6
Continuous
 62
     7
100
AcDbLine
 10
9.3306555437
 20
37.126552924
 30
0.0
 11
9.3306555437
 21
39.553057135
 31
0.0
  0
LINE
  5
309
330
214
100
AcDbEntity
  8
0
  6
Continuous
 62
     7
100
AcDbLine
 10
21.9353799578
 20
37.126552924
 30
0.0
 11
21.9353799578
 21
39.553057135
 31
0.0
  0
LINE
  5
30A
330
214
100
AcDbEntity
  8
0
  6
Continuous
 62
     7
100
AcDbLine
 10
9.3306555437
 20
39.240557135
 30
0.0
 11
13.83857481089999
 21
39.240557135
 31
0.0
  0
LINE
  5
30B
330
214
100
AcDbEntity
  8
0
  6
Continuous
 62
     7
100
AcDbLine
 10
21.9353799578
 20
39.240557135
 30
0.0
 11
17.04169981089999
 21
39.240557135
 31
0.0
  0
INSERT
  5
30C
330
214
100
AcDbEntity
  8
0
  6
Continuous
 62
     7
100
AcDbBlockReference
  2
_CLOSED
 10
9.3306555437
 20
39.240557135
 30
0.0
 41
0.46875
 42
0.46875
 43
0.46875
 50
180.0
  0
INSERT
  5
30D
330
214
100
AcDbEntity
  8
0
  6
Continuous
 62
     7
100
AcDbBlockReference
  2
_CLOSED
 10
21.9353799578
 20
39.240557135
 30
0.0
 41
0.46875
 42
0.46875
 43
0.46875
  0
ENDBLK
  5
30E
330
214
100
AcDbEntity
  8
0
  6
ByBlock
 62
     0
100
AcDbBlockEnd
  0
BLOCK
  5
30F
330
215
100
AcDbEntity
  8
0
  6
Continuous
 62
     7
100
AcDbBlockBegin
  2
*D15
 70
     1
 10
0.0
 20
0.0
 30
0.0
  3
*D15
  1

  0
TEXT
  5
310
330
215
100
AcDbEntity
  8
0
  6
Continuous
 62
     7
100
AcDbText
 10
37.08527928969999
 20
16.3669849105
 30
0.0
 40
0.390625
  1
(
 41
0.8
100
AcDbText
  0
TEXT
  5
311
330
215
100
AcDbEntity
  8
0
  6
Continuous
 62
     7
100
AcDbText
 10
39.27277928969999
 20
16.3669849105
 30
0.0
 40
0.390625
  1
)
 41
0.8
100
AcDbText
  0
TEXT
  5
312
330
215
100
AcDbEntity
  8
0
  6
Continuous
 62
     7
100
AcDbText
 10
37.39777928969999
 20
16.3669849105
 30
0.0
 40
0.390625
  1
1.50
 41
0.8
100
AcDbText
  0
TEXT
  5
313
330
215
100
AcDbEntity
  8
0
  6
Continuous
 62
     7
100
AcDbText
 10
37.71027928969999
 20
15.78104741049999
 30
0.0
 40
0.390625
  1
38,1
 41
0.8
100
AcDbText
  0
TEXT
  5
314
330
215
100
AcDbEntity
  8
0
  6
Continuous
 62
     7
100
AcDbText
 10
37.39777928969999
 20
15.78104741049999
 30
0.0
 40
0.390625
  1
[
 41
0.8
100
AcDbText
  0
TEXT
  5
315
330
215
100
AcDbEntity
  8
0
  6
Continuous
 62
     7
100
AcDbText
 10
38.96027928969999
 20
15.78104741049999
 30
0.0
 40
0.390625
  1
]
 41
0.8
100
AcDbText
  0
LINE
  5
316
330
215
100
AcDbEntity
  8
0
  6
Continuous
 62
     7
100
AcDbLine
 10
34.9572527532
 20
14.1452227691
 30
0.0
 11
34.9572527532
 21
16.8747974105
 31
0.0
  0
LINE
  5
317
330
215
100
AcDbEntity
  8
0
  6
Continuous
 62
     7
100
AcDbLine
 10
36.4572527532
 20
14.1452227691
 30
0.0
 11
36.4572527532
 21
16.8747974105
 31
0.0
  0
LINE
  5
318
330
215
100
AcDbEntity
  8
0
  6
Continuous
 62
     7
100
AcDbLine
 10
34.9572527532
 20
16.5622974105
 30
0.0
 11
35.7072527532
 21
16.5622974105
 31
0.0
  0
LINE
  5
319
330
215
100
AcDbEntity
  8
0
  6
Continuous
 62
     7
100
AcDbLine
 10
36.4572527532
 20
16.5622974105
 30
0.0
 11
35.7072527532
 21
16.5622974105
 31
0.0
  0
LINE
  5
31A
330
215
100
AcDbEntity
  8
0
  6
Continuous
 62
     7
100
AcDbLine
 10
35.7072527532
 20
16.5622974105
 30
0.0
 11
36.88996678969999
 21
16.5622974105
 31
0.0
  0
INSERT
  5
31B
330
215
100
AcDbEntity
  8
0
  6
Continuous
 62
     7
100
AcDbBlockReference
  2
_CLOSED
 10
34.9572527532
 20
16.5622974105
 30
0.0
 41
0.46875
 42
0.46875
 43
0.46875
 50
180.0
  0
INSERT
  5
31C
330
215
100
AcDbEntity
  8
0
  6
Continuous
 62
     7
100
AcDbBlockReference
  2
_CLOSED
 10
36.4572527532
 20
16.5622974105
 30
0.0
 41
0.46875
 42
0.46875
 43
0.46875
  0
ENDBLK
  5
31D
330
215
100
AcDbEntity
  8
0
  6
ByBlock
 62
     0
100
AcDbBlockEnd
  0
ENDSEC
  0
SECTION
  2
ENTITIES
  0
LINE
  5
324
330
1F
100
AcDbEntity
  8
DRW_FORMAT
  6
PHANTOM
100
AcDbLine
 10
0.0
 20
0.0
 30
0.0
 11
55.0
 21
0.0
 31
0.0
  0
LINE
  5
325
330
1F
100
AcDbEntity
  8
DRW_FORMAT
  6
PHANTOM
100
AcDbLine
 10
0.0
 20
0.0
 30
0.0
 11
0.0135208467
 21
42.53795049139999
 31
0.0
  0
LINE
  5
326
330
1F
100
AcDbEntity
  8
DRW_FORMAT
  6
Continuous
100
AcDbLine
 10
0.8223443761
 20
41.729126962
 30
0.0
 11
0.8088235294
 21
0.8088235294
 31
0.0
  0
LINE
  5
327
330
1F
100
AcDbEntity
  8
DRW_FORMAT
  6
Continuous
100
AcDbLine
 10
53.3958737879
 20
41.729126962
 30
0.0
 11
53.3823529412
 21
0.8088235294
 31
0.0
  0
LINE
  5
328
330
1F
100
AcDbEntity
  8
DRW_FORMAT
  6
Continuous
100
AcDbLine
 10
53.3958737879
 20
41.729126962
 30
0.0
 11
0.8223443761
 21
41.729126962
 31
0.0
  0
LINE
  5
329
330
1F
100
AcDbEntity
  8
DRW_FORMAT
  6
Continuous
100
AcDbLine
 10
0.8088235294
 20
0.8088235294
 30
0.0
 11
53.3823529412
 21
0.8088235294
 31
0.0
  0
LINE
  5
32A
330
1F
100
AcDbEntity
  8
DRW_FORMAT
  6
Continuous
100
AcDbLine
 10
7.3940355526
 20
41.729126962
 30
0.0
 11
7.3940355526
 21
42.53795049139999
 31
0.0
  0
LINE
  5
32B
330
1F
100
AcDbEntity
  8
DRW_FORMAT
  6
Continuous
100
AcDbLine
 10
13.965726729
 20
41.729126962
 30
0.0
 11
13.965726729
 21
42.53795049139999
 31
0.0
  0
LINE
  5
32C
330
1F
100
AcDbEntity
  8
DRW_FORMAT
  6
Continuous
100
AcDbLine
 10
20.5374179055
 20
41.729126962
 30
0.0
 11
20.5374179055
 21
42.53795049139999
 31
0.0
  0
LINE
  5
32D
330
1F
100
AcDbEntity
  8
DRW_FORMAT
  6
Continuous
100
AcDbLine
 10
33.6808002585
 20
41.729126962
 30
0.0
 11
33.6808002585
 21
42.53795049139999
 31
0.0
  0
LINE
  5
32E
330
1F
100
AcDbEntity
  8
DRW_FORMAT
  6
Continuous
100
AcDbLine
 10
40.25249143489999
 20
41.729126962
 30
0.0
 11
40.25249143489999
 21
42.53795049139999
 31
0.0
  0
LINE
  5
32F
330
1F
100
AcDbEntity
  8
DRW_FORMAT
  6
Continuous
100
AcDbLine
 10
46.8241826114
 20
41.729126962
 30
0.0
 11
46.8241826114
 21
42.53795049139999
 31
0.0
  0
LINE
  5
330
330
1F
100
AcDbEntity
  8
DRW_FORMAT
  6
Continuous
100
AcDbLine
 10
7.3805147059
 20
0.8088235294
 30
0.0
 11
7.3805147059
 21
0.0
 31
0.0
  0
LINE
  5
331
330
1F
100
AcDbEntity
  8
DRW_FORMAT
  6
Continuous
100
AcDbLine
 10
13.95220588239999
 20
0.8088235294
 30
0.0
 11
13.95220588239999
 21
0.0
 31
0.0
  0
LINE
  5
332
330
1F
100
AcDbEntity
  8
DRW_FORMAT
  6
Continuous
100
AcDbLine
 10
20.5238970588
 20
0.8088235294
 30
0.0
 11
20.5238970588
 21
0.0
 31
0.0
  0
LINE
  5
333
330
1F
100
AcDbEntity
  8
DRW_FORMAT
  6
Continuous
100
AcDbLine
 10
33.66727941179999
 20
0.8088235294
 30
0.0
 11
33.66727941179999
 21
0.0
 31
0.0
  0
LINE
  5
334
330
1F
100
AcDbEntity
  8
DRW_FORMAT
  6
Continuous
100
AcDbLine
 10
40.2389705882
 20
0.8088235294
 30
0.0
 11
40.2389705882
 21
0.0
 31
0.0
  0
LINE
  5
335
330
1F
100
AcDbEntity
  8
DRW_FORMAT
  6
Continuous
100
AcDbLine
 10
46.81066176469999
 20
0.8088235294
 30
0.0
 11
46.81066176469999
 21
0.0
 31
0.0
  0
LINE
  5
336
330
1F
100
AcDbEntity
  8
DRW_FORMAT
  6
Continuous
100
AcDbLine
 10
53.44818859340001
 20
31.5097264465
 30
0.0
 11
54.25701212279999
 21
31.5097264465
 31
0.0
  0
LINE
  5
337
330
1F
100
AcDbEntity
  8
DRW_FORMAT
  6
Continuous
100
AcDbLine
 10
0.8118883932999999
 20
31.49614179369999
 30
0.0
 11
0.0030648639
 21
31.49614179369999
 31
0.0
  0
LINE
  5
338
330
1F
100
AcDbEntity
  8
DRW_FORMAT
  6
Continuous
100
AcDbLine
 10
0.8088235294
 20
11.0293530199
 30
0.0
 11
0.0
 21
11.0293530199
 31
0.0
  0
LINE
  5
339
330
1F
100
AcDbEntity
  8
DRW_FORMAT
  6
Continuous
100
AcDbLine
 10
27.0955882353
 20
0.8088235294
 30
0.0
 11
27.0955882353
 21
0.0
 31
0.0
  0
LINE
  5
33A
330
1F
100
AcDbEntity
  8
DRW_FORMAT
  6
Continuous
100
AcDbLine
 10
27.0955882353
 20
0.8088235294
 30
0.0
 11
26.8227641497
 21
0.4245720505
 31
0.0
  0
LINE
  5
33B
330
1F
100
AcDbEntity
  8
DRW_FORMAT
  6
Continuous
100
AcDbLine
 10
27.0955882353
 20
0.8088235294
 30
0.0
 11
27.3684123209
 21
0.4245720505
 31
0.0
  0
LINE
  5
33C
330
1F
100
AcDbEntity
  8
DRW_FORMAT
  6
Continuous
100
AcDbLine
 10
26.8227641497
 20
0.4245720505
 30
0.0
 11
27.3684123209
 21
0.4245720505
 31
0.0
  0
LINE
  5
33D
330
1F
100
AcDbEntity
  8
DRW_FORMAT
  6
Continuous
100
AcDbLine
 10
53.4040370188
 20
21.2655426786
 30
0.0
 11
54.2128605482
 21
21.2655426786
 31
0.0
  0
LINE
  5
33E
330
1F
100
AcDbEntity
  8
DRW_FORMAT
  6
Continuous
100
AcDbLine
 10
53.4040370188
 20
21.2655426786
 30
0.0
 11
53.7882884976
 21
20.99271859299999
 31
0.0
  0
LINE
  5
33F
330
1F
100
AcDbEntity
  8
DRW_FORMAT
  6
Continuous
100
AcDbLine
 10
53.4040370188
 20
21.2655426786
 30
0.0
 11
53.7882884976
 21
21.5383667644
 31
0.0
  0
LINE
  5
340
330
1F
100
AcDbEntity
  8
DRW_FORMAT
  6
Continuous
100
AcDbLine
 10
53.7882884976
 20
20.99271859299999
 30
0.0
 11
53.7882884976
 21
21.5383667644
 31
0.0
  0
LINE
  5
341
330
1F
100
AcDbEntity
  8
DRW_FORMAT
  6
Continuous
100
AcDbLine
 10
0.7943278714000001
 20
21.2658277341
 30
0.0
 11
-0.014495658
 21
21.2658277341
 31
0.0
  0
LINE
  5
342
330
1F
100
AcDbEntity
  8
DRW_FORMAT
  6
Continuous
100
AcDbLine
 10
0.7943278714000001
 20
21.2658277341
 30
0.0
 11
0.4100763925
 21
20.99300364839999
 31
0.0
  0
LINE
  5
343
330
1F
100
AcDbEntity
  8
DRW_FORMAT
  6
Continuous
100
AcDbLine
 10
0.7943278714000001
 20
21.2658277341
 30
0.0
 11
0.4100763925
 21
21.53865181969999
 31
0.0
  0
LINE
  5
344
330
1F
100
AcDbEntity
  8
DRW_FORMAT
  6
Continuous
100
AcDbLine
 10
0.4100763925
 20
20.99300364839999
 30
0.0
 11
0.4100763925
 21
21.53865181969999
 31
0.0
  0
LINE
  5
345
330
1F
100
AcDbEntity
  8
DRW_FORMAT
  6
Continuous
100
AcDbLine
 10
27.109109082
 20
41.729126962
 30
0.0
 11
27.109109082
 21
42.53795049139999
 31
0.0
  0
LINE
  5
346
330
1F
100
AcDbEntity
  8
DRW_FORMAT
  6
Continuous
100
AcDbLine
 10
27.109109082
 20
41.729126962
 30
0.0
 11
26.8362849963
 21
42.1133784409
 31
0.0
  0
LINE
  5
347
330
1F
100
AcDbEntity
  8
DRW_FORMAT
  6
Continuous
100
AcDbLine
 10
27.109109082
 20
41.729126962
 30
0.0
 11
27.3819331676
 21
42.1133784409
 31
0.0
  0
LINE
  5
348
330
1F
100
AcDbEntity
  8
DRW_FORMAT
  6
Continuous
100
AcDbLine
 10
26.8362849963
 20
42.1133784409
 30
0.0
 11
27.3819331676
 21
42.1133784409
 31
0.0
  0
LINE
  5
349
330
1F
100
AcDbEntity
  8
DRW_FORMAT
  6
Continuous
100
AcDbLine
 10
5.776388493699999
 20
41.729126962
 30
0.0
 11
5.776388493699999
 21
40.9203034325
 31
0.0
  0
LINE
  5
34A
330
1F
100
AcDbEntity
  8
DRW_FORMAT
  6
Continuous
100
AcDbLine
 10
5.776388493699999
 20
40.9203034325
 30
0.0
 11
0.8223443761
 21
40.9203034325
 31
0.0
  0
LINE
  5
34B
330
1F
100
AcDbEntity
  8
DRW_FORMAT
  6
PHANTOM
100
AcDbLine
 10
55.0
 20
0.0
 30
0.0
 11
55.0
 21
42.5175398229
 31
0.0
  0
LINE
  5
34C
330
1F
100
AcDbEntity
  8
DRW_FORMAT
  6
PHANTOM
100
AcDbLine
 10
0.0135307205
 20
42.5175398229
 30
0.0
 11
55.0
 21
42.5175398229
 31
0.0
  0
TEXT
  5
34D
330
1F
100
AcDbEntity
  8
DRW_FORMAT
  6
Continuous
100
AcDbText
 10
3.984115469399999
 20
0.337549047
 30
0.0
 40
0.2527573529
  1
8
 41
0.8
100
AcDbText
  0
TEXT
  5
34E
330
1F
100
AcDbEntity
  8
DRW_FORMAT
  6
Continuous
100
AcDbText
 10
10.5558066458
 20
0.337549047
 30
0.0
 40
0.2527573529
  1
7
 41
0.8
100
AcDbText
  0
TEXT
  5
34F
330
1F
100
AcDbEntity
  8
DRW_FORMAT
  6
Continuous
100
AcDbText
 10
17.1274978223
 20
0.337549047
 30
0.0
 40
0.2527573529
  1
6
 41
0.8
100
AcDbText
  0
TEXT
  5
350
330
1F
100
AcDbEntity
  8
DRW_FORMAT
  6
Continuous
100
AcDbText
 10
23.6991889988
 20
0.337549047
 30
0.0
 40
0.2527573529
  1
5
 41
0.8
100
AcDbText
  0
TEXT
  5
351
330
1F
100
AcDbEntity
  8
DRW_FORMAT
  6
Continuous
100
AcDbText
 10
30.2708801753
 20
0.337549047
 30
0.0
 40
0.2527573529
  1
4
 41
0.8
100
AcDbText
  0
TEXT
  5
352
330
1F
100
AcDbEntity
  8
DRW_FORMAT
  6
Continuous
100
AcDbText
 10
36.8425713517
 20
0.337549047
 30
0.0
 40
0.2527573529
  1
3
 41
0.8
100
AcDbText
  0
TEXT
  5
353
330
1F
100
AcDbEntity
  8
DRW_FORMAT
  6
Continuous
100
AcDbText
 10
43.41426252819999
 20
0.337549047
 30
0.0
 40
0.2527573529
  1
2
 41
0.8
100
AcDbText
  0
TEXT
  5
354
330
1F
100
AcDbEntity
  8
DRW_FORMAT
  6
Continuous
100
AcDbText
 10
49.9859537047
 20
0.337549047
 30
0.0
 40
0.2527573529
  1
1
 41
0.8
100
AcDbText
  0
TEXT
  5
355
330
1F
100
AcDbEntity
  8
DRW_FORMAT
  6
Continuous
100
AcDbText
 10
4.098466396
 20
41.9783909611
 30
0.0
 40
0.2527575
  1
8
 41
0.8
100
AcDbText
  0
TEXT
  5
356
330
1F
100
AcDbEntity
  8
DRW_FORMAT
  6
Continuous
100
AcDbText
 10
10.69342432809999
 20
41.9877942584
 30
0.0
 40
0.2527573529
  1
7
 41
0.8
100
AcDbText
  0
TEXT
  5
357
330
1F
100
AcDbEntity
  8
DRW_FORMAT
  6
Continuous
100
AcDbText
 10
17.2688796941
 20
41.9632625755
 30
0.0
 40
0.2527573529
  1
6
 41
0.8
100
AcDbText
  0
TEXT
  5
358
330
1F
100
AcDbEntity
  8
DRW_FORMAT
  6
Continuous
100
AcDbText
 10
23.8535018089
 20
41.99003327409999
 30
0.0
 40
0.2527573529
  1
5
 41
0.8
100
AcDbText
  0
TEXT
  5
359
330
1F
100
AcDbEntity
  8
DRW_FORMAT
  6
Continuous
100
AcDbText
 10
30.4263124932
 20
41.9729324803
 30
0.0
 40
0.2527573529
  1
4
 41
0.8
100
AcDbText
  0
TEXT
  5
35A
330
1F
100
AcDbEntity
  8
DRW_FORMAT
  6
Continuous
100
AcDbText
 10
36.940795573
 20
41.9706934646
 30
0.0
 40
0.2527573529
  1
3
 41
0.8
100
AcDbText
  0
TEXT
  5
35B
330
1F
100
AcDbEntity
  8
DRW_FORMAT
  6
Continuous
100
AcDbText
 10
43.51015024379999
 20
41.9729324803
 30
0.0
 40
0.2527573529
  1
2
 41
0.8
100
AcDbText
  0
TEXT
  5
35C
330
1F
100
AcDbEntity
  8
DRW_FORMAT
  6
Continuous
100
AcDbText
 10
50.1146153241
 20
41.9974640896
 30
0.0
 40
0.2527575
  1
1
 41
0.8
100
AcDbText
  0
TEXT
  5
35D
330
1F
100
AcDbEntity
  8
DRW_FORMAT
  6
Continuous
100
AcDbText
 10
0.2857905780999999
 20
5.795179018799999
 30
0.0
 40
0.2527573529
  1
A
 41
0.8
100
AcDbText
  0
TEXT
  5
35E
330
1F
100
AcDbEntity
  8
DRW_FORMAT
  6
Continuous
100
AcDbText
 10
0.3206488827
 20
16.00290385869999
 30
0.0
 40
0.2527573529
  1
B
 41
0.8
100
AcDbText
  0
TEXT
  5
35F
330
1F
100
AcDbEntity
  8
DRW_FORMAT
  6
Continuous
100
AcDbText
 10
0.3343554715
 20
26.3277085173
 30
0.0
 40
0.2527573529
  1
C
 41
0.8
100
AcDbText
  0
TEXT
  5
360
330
1F
100
AcDbEntity
  8
DRW_FORMAT
  6
Continuous
100
AcDbText
 10
0.2929970957
 20
36.51026965789999
 30
0.0
 40
0.2527573529
  1
D
 41
0.8
100
AcDbText
  0
TEXT
  5
361
330
1F
100
AcDbEntity
  8
DRW_FORMAT
  6
Continuous
100
AcDbText
 10
53.7030018239
 20
4.955241094299999
 30
0.0
 40
0.2527573529
  1
A
 41
0.8
100
AcDbText
  0
TEXT
  5
362
330
1F
100
AcDbEntity
  8
DRW_FORMAT
  6
Continuous
100
AcDbText
 10
53.9663444326
 20
26.21985260449999
 30
0.0
 40
0.2527573529
  1
C
 41
0.8
100
AcDbText
  0
TEXT
  5
363
330
1F
100
AcDbEntity
  8
DRW_FORMAT
  6
Continuous
100
AcDbText
 10
54.0132345734
 20
35.36588298849999
 30
0.0
 40
0.2527573529
  1
D
 41
0.8
100
AcDbText
  0
TEXT
  5
364
330
1F
100
AcDbEntity
  8
DRW_FORMAT
  6
Continuous
100
AcDbText
 10
41.4419030971
 20
0.5944009974000001
 30
0.0
 40
0.1455882353
  1
MODEL INFO
 41
0.8
100
AcDbText
  0
TEXT
  5
365
330
1F
100
AcDbEntity
  8
DRW_FORMAT
  6
Continuous
100
AcDbText
 10
47.0461621143
 20
0.5853660573
 30
0.0
 40
0.1455882353
  1
DRAWING INFO
 41
0.8
100
AcDbText
  0
MTEXT
  5
366
330
1F
100
AcDbEntity
  8
DRW_FORMAT
  6
Continuous
100
AcDbMText
 10
0.9621397391126627
 20
41.6894203817135
 30
0.0
 40
0.1213235294
 41
4.7558823529
 71
     1
 72
     1
  1
THIS DOCUMENT CONTAINS PROPRIETARY INFORMATION\PWHICH IS THE PROPERTY OF QSC AUDIO PRODUCTS, THAT\PMAY NOT BE DISCLOSED, REPRODUCED OR USED WITHOUT\PEXPRESS WRITTEN CONSENT FROM QSC AUDIO PRODUCTS.
 73
     1
 44
1.0
  0
INSERT
  5
367
330
1F
100
AcDbEntity
  8
DRW_FORMAT
  6
Continuous
100
AcDbBlockReference
  2
RD010411_BL0
 10
43.2622450003
 20
6.3006517939
 30
0.0
  0
LINE
  5
368
330
1F
100
AcDbEntity
  8
0
  6
Continuous
100
AcDbLine
 10
36.1056945155
 20
3.293636701499999
 30
0.0
 11
34.6437749261
 21
3.0284759537
 31
0.0
  0
LINE
  5
369
330
1F
100
AcDbEntity
  8
0
  6
Continuous
100
AcDbLine
 10
34.64554266439999
 20
3.288333486499999
 30
0.0
 11
36.0756429641
 21
3.0337791687
 31
0.0
  0
LINE
  5
36A
330
1F
100
AcDbEntity
  8
0
  6
Continuous
100
AcDbLine
 10
9.63380515
 20
12.9515672565
 30
0.0
 11
9.63380515
 21
14.52637040769999
 31
0.0
  0
LINE
  5
36B
330
1F
100
AcDbEntity
  8
0
  6
Continuous
100
AcDbLine
 10
9.63380515
 20
14.52637040769999
 30
0.0
 11
9.63380515
 21
14.7181264041
 31
0.0
  0
LINE
  5
36C
330
1F
100
AcDbEntity
  8
0
  6
Continuous
100
AcDbLine
 10
9.63380515
 20
14.7181264041
 30
0.0
 11
9.63380515
 21
14.8510524121
 31
0.0
  0
LINE
  5
36D
330
1F
100
AcDbEntity
  8
0
  6
Continuous
100
AcDbLine
 10
9.535379953099999
 20
15.116921588
 30
0.0
 11
9.63380515
 21
15.116921588
 31
0.0
  0
LINE
  5
36E
330
1F
100
AcDbEntity
  8
0
  6
Continuous
100
AcDbLine
 10
9.63380515
 20
14.8510581326
 30
0.0
 11
9.63380515
 21
14.8581132997
 31
0.0
  0
LINE
  5
36F
330
1F
100
AcDbEntity
  8
0
  6
Continuous
100
AcDbLine
 10
9.63380515
 20
14.8581132997
 30
0.0
 11
9.63380515
 21
15.116921588
 31
0.0
  0
LINE
  5
370
330
1F
100
AcDbEntity
  8
0
  6
Continuous
100
AcDbLine
 10
21.9353799555
 20
12.36101607619999
 30
0.0
 11
21.82640483179999
 21
12.36101607619999
 31
0.0
  0
LINE
  5
371
330
1F
100
AcDbEntity
  8
0
  6
Continuous
100
AcDbLine
 10
21.82640483179999
 20
12.36101607619999
 30
0.0
 11
21.7975846775
 21
12.36101607619999
 31
0.0
  0
LINE
  5
372
330
1F
100
AcDbEntity
  8
0
  6
Continuous
100
AcDbLine
 10
21.9353799578
 20
15.116921588
 30
0.0
 11
21.9353799578
 21
12.36101607619999
 31
0.0
  0
LINE
  5
373
330
1F
100
AcDbEntity
  8
0
  6
Continuous
100
AcDbLine
 10
9.535379953099999
 20
14.8581132997
 30
0.0
 11
9.535379953099999
 21
15.116921588
 31
0.0
  0
LINE
  5
374
330
1F
100
AcDbEntity
  8
0
  6
Continuous
100
AcDbLine
 10
9.535379953099999
 20
14.7181264041
 30
0.0
 11
9.535379953099999
 21
14.8510524121
 31
0.0
  0
LINE
  5
375
330
1F
100
AcDbEntity
  8
0
  6
Continuous
100
AcDbLine
 10
9.535379953099999
 20
14.52637040769999
 30
0.0
 11
9.535379953099999
 21
14.7181264041
 31
0.0
  0
LINE
  5
376
330
1F
100
AcDbEntity
  8
0
  6
Continuous
100
AcDbLine
 10
9.535379953099999
 20
12.9515672565
 30
0.0
 11
9.535379953099999
 21
14.52637040769999
 31
0.0
  0
LINE
  5
377
330
1F
100
AcDbEntity
  8
0
  6
Continuous
100
AcDbLine
 10
21.7306555446
 20
12.36101607619999
 30
0.0
 11
21.63223034679999
 21
12.36101607619999
 31
0.0
  0
LINE
  5
378
330
1F
100
AcDbEntity
  8
0
  6
Continuous
100
AcDbLine
 10
21.63223034679999
 20
14.8510523832
 30
0.0
 11
21.63223034679999
 21
14.7181264041
 31
0.0
  0
LINE
  5
379
330
1F
100
AcDbEntity
  8
0
  6
Continuous
100
AcDbLine
 10
21.73065554369999
 20
14.8510523832
 30
0.0
 11
21.73065554369999
 21
14.7181264041
 31
0.0
  0
LINE
  5
37A
330
1F
100
AcDbEntity
  8
0
  6
Continuous
100
AcDbLine
 10
9.4960098744
 20
12.36101607619999
 30
0.0
 11
9.535379933699999
 21
12.36101607619999
 31
0.0
  0
LINE
  5
37B
330
1F
100
AcDbEntity
  8
0
  6
Continuous
100
AcDbLine
 10
21.73065554369999
 20
14.8510581326
 30
0.0
 11
21.63223034679999
 21
14.8510581326
 31
0.0
  0
LINE
  5
37C
330
1F
100
AcDbEntity
  8
0
  6
Continuous
100
AcDbLine
 10
21.63223034679999
 20
15.116921588
 30
0.0
 11
21.63223034679999
 21
14.8407736473
 31
0.0
  0
LINE
  5
37D
330
1F
100
AcDbEntity
  8
0
  6
Continuous
100
AcDbLine
 10
21.73065554369999
 20
15.116921588
 30
0.0
 11
21.73065554369999
 21
14.8510581326
 31
0.0
  0
LINE
  5
37E
330
1F
100
AcDbEntity
  8
0
  6
Continuous
100
AcDbLine
 10
9.4960098744
 20
12.36101607619999
 30
0.0
 11
9.468450819299999
 21
12.36101607619999
 31
0.0
  0
LINE
  5
37F
330
1F
100
AcDbEntity
  8
0
  6
Continuous
100
AcDbLine
 10
21.73065554369999
 20
15.116921588
 30
0.0
 11
21.63223034679999
 21
15.116921588
 31
0.0
  0
LINE
  5
380
330
1F
100
AcDbEntity
  8
0
  6
Continuous
100
AcDbLine
 10
9.468450819299999
 20
15.116921588
 30
0.0
 11
9.4960098744
 21
15.116921588
 31
0.0
  0
LINE
  5
381
330
1F
100
AcDbEntity
  8
0
  6
Continuous
100
AcDbLine
 10
21.63223034679999
 20
12.36101607619999
 30
0.0
 11
21.4432539689
 21
12.36101607619999
 31
0.0
  0
LINE
  5
382
330
1F
100
AcDbEntity
  8
0
  6
Continuous
100
AcDbLine
 10
9.63380515
 20
15.116921588
 30
0.0
 11
9.8227815279
 21
15.116921588
 31
0.0
  0
LINE
  5
383
330
1F
100
AcDbEntity
  8
0
  6
Continuous
100
AcDbLine
 10
9.3306555413
 20
15.116921588
 30
0.0
 11
9.439630664899999
 21
15.116921588
 31
0.0
  0
LINE
  5
384
330
1F
100
AcDbEntity
  8
0
  6
Continuous
100
AcDbLine
 10
9.439630664899999
 20
15.116921588
 30
0.0
 11
9.468450819299999
 21
15.116921588
 31
0.0
  0
LINE
  5
385
330
1F
100
AcDbEntity
  8
0
  6
Continuous
100
AcDbLine
 10
9.468450819299999
 20
12.36101607619999
 30
0.0
 11
9.4258607751
 21
12.36101607619999
 31
0.0
  0
LINE
  5
386
330
1F
100
AcDbEntity
  8
0
  6
Continuous
100
AcDbLine
 10
9.4258607751
 20
12.36101607619999
 30
0.0
 11
9.3306555413
 21
12.36101607619999
 31
0.0
  0
LINE
  5
387
330
1F
100
AcDbEntity
  8
0
  6
Continuous
100
AcDbLine
 10
9.330655539
 20
12.36101607619999
 30
0.0
 11
9.330655539
 21
15.116921588
 31
0.0
  0
LINE
  5
388
330
1F
100
AcDbEntity
  8
0
  6
Continuous
100
AcDbLine
 10
9.63380515
 20
14.8510581326
 30
0.0
 11
9.535379953099999
 21
14.8510581326
 31
0.0
  0
LINE
  5
389
330
1F
100
AcDbEntity
  8
0
  6
Continuous
100
AcDbLine
 10
9.535379953099999
 20
12.36101607619999
 30
0.0
 11
9.535379953099999
 21
12.9515672565
 31
0.0
  0
LINE
  5
38A
330
1F
100
AcDbEntity
  8
0
  6
Continuous
100
AcDbLine
 10
9.63380515
 20
12.36101607619999
 30
0.0
 11
9.63380515
 21
12.9515672565
 31
0.0
  0
ARC
  5
38B
330
1F
100
AcDbEntity
  8
0
  6
Continuous
100
AcDbCircle
 10
11.9912854649
 20
14.3688900919
 30
0.0
 40
0.1405511811
100
AcDbArc
 50
270.0000007113
 51
89.99999928870002
  0
ARC
  5
38C
330
1F
100
AcDbEntity
  8
0
  6
Continuous
100
AcDbCircle
 10
10.9912854649
 20
14.3688900919
 30
0.0
 40
0.1405511811
100
AcDbArc
 50
89.99999926239999
 51
270.0000007375999
  0
ARC
  5
38D
330
1F
100
AcDbEntity
  8
0
  6
Continuous
100
AcDbCircle
 10
10.9912854649
 20
13.1090475723
 30
0.0
 40
0.1405511811
100
AcDbArc
 50
89.99999926239999
 51
270.0000007375999
  0
ARC
  5
38E
330
1F
100
AcDbEntity
  8
0
  6
Continuous
100
AcDbCircle
 10
11.9912854649
 20
13.1090475723
 30
0.0
 40
0.1405511811
100
AcDbArc
 50
270.0000007113
 51
89.99999928870002
  0
ARC
  5
38F
330
1F
100
AcDbEntity
  8
0
  6
Continuous
100
AcDbCircle
 10
14.3830177484
 20
13.7389688321
 30
0.0
 40
0.1405511811
100
AcDbArc
 50
270.0000012172
 51
89.9999987828
  0
ARC
  5
390
330
1F
100
AcDbEntity
  8
0
  6
Continuous
100
AcDbCircle
 10
14.3830177484
 20
13.7389688321
 30
0.0
 40
0.1405511811
100
AcDbArc
 50
89.9999987828
 51
270.0000012172
  0
ARC
  5
391
330
1F
100
AcDbEntity
  8
0
  6
Continuous
100
AcDbCircle
 10
15.6330177484
 20
13.7389688321
 30
0.0
 40
0.175
100
AcDbArc
 50
270.0
 51
90.0
  0
ARC
  5
392
330
1F
100
AcDbEntity
  8
0
  6
Continuous
100
AcDbCircle
 10
15.6330177484
 20
13.7389688321
 30
0.0
 40
0.175
100
AcDbArc
 50
90.0
 51
270.0
  0
ARC
  5
393
330
1F
100
AcDbEntity
  8
0
  6
Continuous
100
AcDbCircle
 10
16.8830177484
 20
13.7389688321
 30
0.0
 40
0.1405511811
100
AcDbArc
 50
269.9999987827999
 51
90.00000121719999
  0
ARC
  5
394
330
1F
100
AcDbEntity
  8
0
  6
Continuous
100
AcDbCircle
 10
16.8830177484
 20
13.7389688321
 30
0.0
 40
0.1405511811
100
AcDbArc
 50
90.00000121719999
 51
269.9999987827999
  0
ARC
  5
395
330
1F
100
AcDbEntity
  8
0
  6
Continuous
100
AcDbCircle
 10
19.2747500319
 20
13.1090475723
 30
0.0
 40
0.1405511811
100
AcDbArc
 50
90.00000071129999
 51
269.9999992887
  0
ARC
  5
396
330
1F
100
AcDbEntity
  8
0
  6
Continuous
100
AcDbCircle
 10
20.2747500319
 20
13.1090475723
 30
0.0
 40
0.1405511811
100
AcDbArc
 50
269.9999992624
 51
90.0000007376
  0
ARC
  5
397
330
1F
100
AcDbEntity
  8
0
  6
Continuous
100
AcDbCircle
 10
20.2747500319
 20
14.3688900919
 30
0.0
 40
0.1405511811
100
AcDbArc
 50
269.9999992624
 51
90.0000007376
  0
ARC
  5
398
330
1F
100
AcDbEntity
  8
0
  6
Continuous
100
AcDbCircle
 10
19.2747500319
 20
14.3688900919
 30
0.0
 40
0.1405511811
100
AcDbArc
 50
90.00000071129999
 51
269.9999992887
  0
LINE
  5
399
330
1F
100
AcDbEntity
  8
0
  6
Continuous
100
AcDbLine
 10
9.63380515
 20
12.36101607619999
 30
0.0
 11
9.535379953099999
 21
12.36101607619999
 31
0.0
  0
LINE
  5
39A
330
1F
100
AcDbEntity
  8
0
  6
Continuous
100
AcDbLine
 10
9.535379933699999
 20
15.116921588
 30
0.0
 11
9.4960098744
 21
15.116921588
 31
0.0
  0
LINE
  5
39B
330
1F
100
AcDbEntity
  8
0
  6
Continuous
100
AcDbLine
 10
21.4432539689
 20
15.116921588
 30
0.0
 11
21.63223034679999
 21
15.116921588
 31
0.0
  0
LINE
  5
39C
330
1F
100
AcDbEntity
  8
0
  6
Continuous
100
AcDbLine
 10
9.8227815279
 20
15.116921588
 30
0.0
 11
21.4432539689
 21
15.116921588
 31
0.0
  0
LINE
  5
39D
330
1F
100
AcDbEntity
  8
0
  6
Continuous
100
AcDbLine
 10
21.73065553709999
 20
12.36101607619999
 30
0.0
 11
21.77002562239999
 21
12.36101607619999
 31
0.0
  0
LINE
  5
39E
330
1F
100
AcDbEntity
  8
0
  6
Continuous
100
AcDbLine
 10
21.73065554369999
 20
14.7181264041
 30
0.0
 11
21.73065554369999
 21
14.52637040769999
 31
0.0
  0
LINE
  5
39F
330
1F
100
AcDbEntity
  8
0
  6
Continuous
100
AcDbLine
 10
21.73065554369999
 20
14.52637040769999
 30
0.0
 11
21.73065554369999
 21
12.9515672565
 31
0.0
  0
LINE
  5
3A0
330
1F
100
AcDbEntity
  8
0
  6
Continuous
100
AcDbLine
 10
21.73065554369999
 20
12.9515672565
 30
0.0
 11
21.73065554369999
 21
12.36101607619999
 31
0.0
  0
LINE
  5
3A1
330
1F
100
AcDbEntity
  8
0
  6
Continuous
100
AcDbLine
 10
21.63223034679999
 20
12.9515672565
 30
0.0
 11
21.63223034679999
 21
12.36101607619999
 31
0.0
  0
LINE
  5
3A2
330
1F
100
AcDbEntity
  8
0
  6
Continuous
100
AcDbLine
 10
21.4432539689
 20
12.36101607619999
 30
0.0
 11
9.8227815279
 21
12.36101607619999
 31
0.0
  0
LINE
  5
3A3
330
1F
100
AcDbEntity
  8
0
  6
Continuous
100
AcDbLine
 10
21.63223034679999
 20
14.52637040769999
 30
0.0
 11
21.63223034679999
 21
12.9515672565
 31
0.0
  0
LINE
  5
3A4
330
1F
100
AcDbEntity
  8
0
  6
Continuous
100
AcDbLine
 10
21.63223034679999
 20
14.7181264041
 30
0.0
 11
21.63223034679999
 21
14.52637040769999
 31
0.0
  0
LINE
  5
3A5
330
1F
100
AcDbEntity
  8
0
  6
Continuous
100
AcDbLine
 10
9.8227815279
 20
12.36101607619999
 30
0.0
 11
9.63380515
 21
12.36101607619999
 31
0.0
  0
LINE
  5
3A6
330
1F
100
AcDbEntity
  8
0
  6
Continuous
100
AcDbLine
 10
21.77002562239999
 20
15.116921588
 30
0.0
 11
21.73065553709999
 21
15.116921588
 31
0.0
  0
LINE
  5
3A7
330
1F
100
AcDbEntity
  8
0
  6
Continuous
100
AcDbLine
 10
11.9912854649
 20
14.509441273
 30
0.0
 11
10.9912854649
 21
14.509441273
 31
0.0
  0
LINE
  5
3A8
330
1F
100
AcDbEntity
  8
0
  6
Continuous
100
AcDbLine
 10
21.7975846775
 20
12.36101607619999
 30
0.0
 11
21.77002562239999
 21
12.36101607619999
 31
0.0
  0
LINE
  5
3A9
330
1F
100
AcDbEntity
  8
0
  6
Continuous
100
AcDbLine
 10
10.9912854649
 20
14.22833891079999
 30
0.0
 11
11.9912854649
 21
14.22833891079999
 31
0.0
  0
LINE
  5
3AA
330
1F
100
AcDbEntity
  8
0
  6
Continuous
100
AcDbLine
 10
21.7975846775
 20
15.116921588
 30
0.0
 11
21.77002562239999
 21
15.116921588
 31
0.0
  0
LINE
  5
3AB
330
1F
100
AcDbEntity
  8
0
  6
Continuous
100
AcDbLine
 10
21.7975846775
 20
15.116921588
 30
0.0
 11
21.8401747217
 21
15.116921588
 31
0.0
  0
LINE
  5
3AC
330
1F
100
AcDbEntity
  8
0
  6
Continuous
100
AcDbLine
 10
21.8401747217
 20
15.116921588
 30
0.0
 11
21.9353799555
 21
15.116921588
 31
0.0
  0
LINE
  5
3AD
330
1F
100
AcDbEntity
  8
0
  6
Continuous
100
AcDbLine
 10
10.9912854649
 20
12.96849639119999
 30
0.0
 11
11.9912854649
 21
12.96849639119999
 31
0.0
  0
LINE
  5
3AE
330
1F
100
AcDbEntity
  8
0
  6
Continuous
100
AcDbLine
 10
19.2747500319
 20
14.22833891079999
 30
0.0
 11
20.2747500319
 21
14.22833891079999
 31
0.0
  0
LINE
  5
3AF
330
1F
100
AcDbEntity
  8
0
  6
Continuous
100
AcDbLine
 10
20.2747500319
 20
14.509441273
 30
0.0
 11
19.2747500319
 21
14.509441273
 31
0.0
  0
LINE
  5
3B0
330
1F
100
AcDbEntity
  8
0
  6
Continuous
100
AcDbLine
 10
20.2747500319
 20
13.2495987534
 30
0.0
 11
19.2747500319
 21
13.2495987534
 31
0.0
  0
LINE
  5
3B1
330
1F
100
AcDbEntity
  8
0
  6
Continuous
100
AcDbLine
 10
11.9912854649
 20
13.2495987534
 30
0.0
 11
10.9912854649
 21
13.2495987534
 31
0.0
  0
LINE
  5
3B2
330
1F
100
AcDbEntity
  8
0
  6
Continuous
100
AcDbLine
 10
19.2747500319
 20
12.96849639119999
 30
0.0
 11
20.2747500319
 21
12.96849639119999
 31
0.0
  0
LINE
  5
3B3
330
1F
100
AcDbEntity
  8
0
  6
Continuous
100
AcDbLine
 10
9.63380515
 20
27.3640037114
 30
0.0
 11
9.63380515
 21
27.3960028932
 31
0.0
  0
LINE
  5
3B4
330
1F
100
AcDbEntity
  8
0
  6
Continuous
100
AcDbLine
 10
9.63380515
 20
27.3960028932
 30
0.0
 11
9.63380515
 21
27.7329830454
 31
0.0
  0
LINE
  5
3B5
330
1F
100
AcDbEntity
  8
0
  6
Continuous
100
AcDbLine
 10
9.63380515
 20
27.7329830454
 30
0.0
 11
9.63380515
 21
28.1798808971
 31
0.0
  0
LINE
  5
3B6
330
1F
100
AcDbEntity
  8
0
  6
Continuous
100
AcDbLine
 10
9.63380515
 20
28.1798808971
 30
0.0
 11
9.63380515
 21
28.3767019252
 31
0.0
  0
LINE
  5
3B7
330
1F
100
AcDbEntity
  8
0
  6
Continuous
100
AcDbLine
 10
9.535379953099999
 20
28.1798808971
 30
0.0
 11
9.535379953099999
 21
28.3767019252
 31
0.0
  0
LINE
  5
3B8
330
1F
100
AcDbEntity
  8
0
  6
Continuous
100
AcDbLine
 10
9.535379953099999
 20
28.1798515304
 30
0.0
 11
9.63380515
 21
28.1798515304
 31
0.0
  0
LINE
  5
3B9
330
1F
100
AcDbEntity
  8
0
  6
Continuous
100
AcDbLine
 10
9.535379953099999
 20
27.3640037114
 30
0.0
 11
9.63380515
 21
27.3640037114
 31
0.0
  0
LINE
  5
3BA
330
1F
100
AcDbEntity
  8
0
  6
Continuous
100
AcDbLine
 10
9.535379953099999
 20
27.7329830454
 30
0.0
 11
9.535379953099999
 21
28.1798808971
 31
0.0
  0
LINE
  5
3BB
330
1F
100
AcDbEntity
  8
0
  6
Continuous
100
AcDbLine
 10
9.535379953099999
 20
27.3960028932
 30
0.0
 11
9.535379953099999
 21
27.7329830454
 31
0.0
  0
LINE
  5
3BC
330
1F
100
AcDbEntity
  8
0
  6
Continuous
100
AcDbLine
 10
9.535379953099999
 20
27.3640037114
 30
0.0
 11
9.535379953099999
 21
27.3960028932
 31
0.0
  0
LINE
  5
3BD
330
1F
100
AcDbEntity
  8
0
  6
Continuous
100
AcDbLine
 10
21.73065554369999
 20
28.1798515304
 30
0.0
 11
21.63223034679999
 21
28.1798515304
 31
0.0
  0
LINE
  5
3BE
330
1F
100
AcDbEntity
  8
0
  6
Continuous
100
AcDbLine
 10
9.468450819299999
 20
30.6028677173
 30
0.0
 11
9.4960098744
 21
30.6028677173
 31
0.0
  0
LINE
  5
3BF
330
1F
100
AcDbEntity
  8
0
  6
Continuous
100
AcDbLine
 10
9.4960098744
 20
30.7012929188
 30
0.0
 11
9.468450819299999
 21
30.7012929188
 31
0.0
  0
ARC
  5
3C0
330
1F
100
AcDbEntity
  8
0
  6
Continuous
100
AcDbCircle
 10
9.468450819299999
 20
30.7406629975
 30
0.0
 40
0.0393700834
100
AcDbArc
 50
180.0
 51
270.0
  0
ARC
  5
3C1
330
1F
100
AcDbEntity
  8
0
  6
Continuous
100
AcDbCircle
 10
9.468450819299999
 20
30.7406629975
 30
0.0
 40
0.1377952802
100
AcDbArc
 50
180.0
 51
270.0
  0
LINE
  5
3C2
330
1F
100
AcDbEntity
  8
0
  6
Continuous
100
AcDbLine
 10
9.5353799402
 20
30.5634976432
 30
0.0
 11
9.5353799402
 21
28.3767019241
 31
0.0
  0
LINE
  5
3C3
330
1F
100
AcDbEntity
  8
0
  6
Continuous
100
AcDbLine
 10
9.63380515
 20
28.3767019241
 30
0.0
 11
9.63380515
 21
30.5634976432
 31
0.0
  0
ARC
  5
3C4
330
1F
100
AcDbEntity
  8
0
  6
Continuous
100
AcDbCircle
 10
9.4960098744
 20
30.5634976432
 30
0.0
 40
0.1377952626
100
AcDbArc
 50
0.0
 51
90.0
  0
ARC
  5
3C5
330
1F
100
AcDbEntity
  8
0
  6
Continuous
100
AcDbCircle
 10
9.4960098744
 20
30.5634976432
 30
0.0
 40
0.0393700658
100
AcDbArc
 50
0.0
 51
90.0
  0
LINE
  5
3C6
330
1F
100
AcDbEntity
  8
0
  6
Continuous
100
AcDbLine
 10
21.63223034679999
 20
27.3640037114
 30
0.0
 11
21.73065554369999
 21
27.3640037114
 31
0.0
  0
ARC
  5
3C7
330
1F
100
AcDbEntity
  8
0
  6
Continuous
100
AcDbCircle
 10
21.4432539689
 20
36.970302924
 30
0.0
 40
0.4921259843
100
AcDbArc
 50
0.0
 51
90.0
  0
ARC
  5
3C8
330
1F
100
AcDbEntity
  8
0
  6
Continuous
100
AcDbCircle
 10
21.4432539689
 20
36.970302924
 30
0.0
 40
0.3937007874
100
AcDbArc
 50
0.0
 51
90.0
  0
LINE
  5
3C9
330
1F
100
AcDbEntity
  8
0
  6
Continuous
100
AcDbLine
 10
21.4432539689
 20
37.4624289082
 30
0.0
 11
9.8227815279
 21
37.4624289082
 31
0.0
  0
LINE
  5
3CA
330
1F
100
AcDbEntity
  8
0
  6
Continuous
100
AcDbLine
 10
9.8227815279
 20
37.36400371139999
 30
0.0
 11
21.4432539689
 21
37.36400371139999
 31
0.0
  0
ARC
  5
3CB
330
1F
100
AcDbEntity
  8
0
  6
Continuous
100
AcDbCircle
 10
9.8227815279
 20
36.970302924
 30
0.0
 40
0.4921259843
100
AcDbArc
 50
90.0
 51
180.0
  0
ARC
  5
3CC
330
1F
100
AcDbEntity
  8
0
  6
Continuous
100
AcDbCircle
 10
9.8227815279
 20
36.970302924
 30
0.0
 40
0.3937007874
100
AcDbArc
 50
90.0
 51
180.0
  0
LINE
  5
3CD
330
1F
100
AcDbEntity
  8
0
  6
Continuous
100
AcDbLine
 10
9.3306555437
 20
36.970302924
 30
0.0
 11
9.3306555437
 21
30.7406629975
 31
0.0
  0
LINE
  5
3CE
330
1F
100
AcDbEntity
  8
0
  6
Continuous
100
AcDbLine
 10
9.429080740499999
 20
30.7406629975
 30
0.0
 11
9.429080740499999
 21
36.970302924
 31
0.0
  0
LINE
  5
3CF
330
1F
100
AcDbEntity
  8
0
  6
Continuous
100
AcDbLine
 10
21.73065554369999
 20
30.5634976432
 30
0.0
 11
21.73065554369999
 21
28.3767019241
 31
0.0
  0
LINE
  5
3D0
330
1F
100
AcDbEntity
  8
0
  6
Continuous
100
AcDbLine
 10
21.73065554369999
 20
28.3767019252
 30
0.0
 11
21.73065554369999
 21
28.179880873
 31
0.0
  0
LINE
  5
3D1
330
1F
100
AcDbEntity
  8
0
  6
Continuous
100
AcDbLine
 10
21.73065554369999
 20
28.1798515304
 30
0.0
 11
21.73065554369999
 21
27.7329830454
 31
0.0
  0
LINE
  5
3D2
330
1F
100
AcDbEntity
  8
0
  6
Continuous
100
AcDbLine
 10
21.73065554369999
 20
27.7329830454
 30
0.0
 11
21.73065554369999
 21
27.3960028932
 31
0.0
  0
LINE
  5
3D3
330
1F
100
AcDbEntity
  8
0
  6
Continuous
100
AcDbLine
 10
21.73065554369999
 20
27.3960028932
 30
0.0
 11
21.73065554369999
 21
27.3640037114
 31
0.0
  0
LINE
  5
3D4
330
1F
100
AcDbEntity
  8
0
  6
Continuous
100
AcDbLine
 10
21.63223034679999
 20
30.5634976432
 30
0.0
 11
21.63223034679999
 21
28.3767019252
 31
0.0
  0
LINE
  5
3D5
330
1F
100
AcDbEntity
  8
0
  6
Continuous
100
AcDbLine
 10
21.63223034679999
 20
27.3960028932
 30
0.0
 11
21.63223034679999
 21
27.3640037114
 31
0.0
  0
LINE
  5
3D6
330
1F
100
AcDbEntity
  8
0
  6
Continuous
100
AcDbLine
 10
21.63223034679999
 20
27.7329830454
 30
0.0
 11
21.63223034679999
 21
27.3960028932
 31
0.0
  0
LINE
  5
3D7
330
1F
100
AcDbEntity
  8
0
  6
Continuous
100
AcDbLine
 10
21.63223034679999
 20
28.1798515304
 30
0.0
 11
21.63223034679999
 21
27.7329830454
 31
0.0
  0
LINE
  5
3D8
330
1F
100
AcDbEntity
  8
0
  6
Continuous
100
AcDbLine
 10
21.63223034679999
 20
28.3767019252
 30
0.0
 11
21.63223034679999
 21
28.179880873
 31
0.0
  0
ARC
  5
3D9
330
1F
100
AcDbEntity
  8
0
  6
Continuous
100
AcDbCircle
 10
21.77002562239999
 20
30.5634976432
 30
0.0
 40
0.13779528
100
AcDbArc
 50
90.0
 51
180.0
  0
ARC
  5
3DA
330
1F
100
AcDbEntity
  8
0
  6
Continuous
100
AcDbCircle
 10
21.77002562239999
 20
30.5634976432
 30
0.0
 40
0.0393700831
100
AcDbArc
 50
90.0
 51
180.0
  0
LINE
  5
3DB
330
1F
100
AcDbEntity
  8
0
  6
Continuous
100
AcDbLine
 10
21.7975846775
 20
30.7012929188
 30
0.0
 11
21.77002562239999
 21
30.7012929188
 31
0.0
  0
LINE
  5
3DC
330
1F
100
AcDbEntity
  8
0
  6
Continuous
100
AcDbLine
 10
21.7975846775
 20
30.6028677263
 30
0.0
 11
21.77002562239999
 21
30.6028677263
 31
0.0
  0
ARC
  5
3DD
330
1F
100
AcDbEntity
  8
0
  6
Continuous
100
AcDbCircle
 10
21.7975846775
 20
30.7406629975
 30
0.0
 40
0.0393700834
100
AcDbArc
 50
270.0
 51
360.0
  0
ARC
  5
3DE
330
1F
100
AcDbEntity
  8
0
  6
Continuous
100
AcDbCircle
 10
21.7975846775
 20
30.7406629975
 30
0.0
 40
0.1377952802
100
AcDbArc
 50
270.0
 51
360.0
  0
LINE
  5
3DF
330
1F
100
AcDbEntity
  8
0
  6
Continuous
100
AcDbLine
 10
21.9353799578
 20
36.970302924
 30
0.0
 11
21.9353799578
 21
30.7406629975
 31
0.0
  0
LINE
  5
3E0
330
1F
100
AcDbEntity
  8
0
  6
Continuous
100
AcDbLine
 10
21.8369547609
 20
30.7406629975
 30
0.0
 11
21.8369547609
 21
36.970302924
 31
0.0
  0
LINE
  5
3E1
330
1F
100
AcDbEntity
  8
0
  6
Continuous
100
AcDbLine
 10
37.34966006389999
 20
15.116921588
 30
0.0
 11
37.45863519209999
 21
15.116921588
 31
0.0
  0
LINE
  5
3E2
330
1F
100
AcDbEntity
  8
0
  6
Continuous
100
AcDbLine
 10
37.45863519209999
 20
15.116921588
 30
0.0
 11
37.48745534639999
 21
15.116921588
 31
0.0
  0
LINE
  5
3E3
330
1F
100
AcDbEntity
  8
0
  6
Continuous
100
AcDbLine
 10
37.3496600662
 20
15.116921588
 30
0.0
 11
37.3496600662
 21
12.36101607619999
 31
0.0
  0
LINE
  5
3E4
330
1F
100
AcDbEntity
  8
0
  6
Continuous
100
AcDbLine
 10
37.3102899921
 20
12.36101607619999
 30
0.0
 11
37.349660073
 21
12.36101607619999
 31
0.0
  0
LINE
  5
3E5
330
1F
100
AcDbEntity
  8
0
  6
Continuous
100
AcDbLine
 10
37.3102899921
 20
12.36101607619999
 30
0.0
 11
34.7013472414
 21
12.36101607619999
 31
0.0
  0
LINE
  5
3E6
330
1F
100
AcDbEntity
  8
0
  6
Continuous
100
AcDbLine
 10
37.3102899921
 20
15.116921588
 30
0.0
 11
35.123494273
 21
15.116921588
 31
0.0
  0
ARC
  5
3E7
330
1F
100
AcDbEntity
  8
0
  6
Continuous
100
AcDbCircle
 10
34.9572527532
 20
13.7389688321
 30
0.0
 40
0.1929133858
100
AcDbArc
 50
270.00000033
 51
89.99999966999999
  0
ARC
  5
3E8
330
1F
100
AcDbEntity
  8
0
  6
Continuous
100
AcDbCircle
 10
34.9572527532
 20
13.7389688321
 30
0.0
 40
0.1929133858
100
AcDbArc
 50
89.99999966999999
 51
270.00000033
  0
ARC
  5
3E9
330
1F
100
AcDbEntity
  8
0
  6
Continuous
100
AcDbCircle
 10
36.4572527532
 20
13.7389688321
 30
0.0
 40
0.1929133858
100
AcDbArc
 50
269.9999995624
 51
90.00000043760001
  0
ARC
  5
3EA
330
1F
100
AcDbEntity
  8
0
  6
Continuous
100
AcDbCircle
 10
36.4572527532
 20
13.7389688321
 30
0.0
 40
0.1929133858
100
AcDbArc
 50
90.00000043760001
 51
269.9999995624
  0
ARC
  5
3EB
330
1F
100
AcDbEntity
  8
0
  6
Continuous
100
AcDbCircle
 10
35.123494273
 20
14.9200711943
 30
0.0
 40
0.1968503937
100
AcDbArc
 50
89.9999996895
 51
219.9999998725
  0
LINE
  5
3EC
330
1F
100
AcDbEntity
  8
0
  6
Continuous
100
AcDbLine
 10
34.97269812249999
 20
14.7935382006
 30
0.0
 11
35.6050329788
 21
14.0399508608
 31
0.0
  0
ARC
  5
3ED
330
1F
100
AcDbEntity
  8
0
  6
Continuous
100
AcDbCircle
 10
35.4572527532
 20
13.91594852779999
 30
0.0
 40
0.1929133858
100
AcDbArc
 50
219.999999814
 51
40.0000000428
  0
LINE
  5
3EE
330
1F
100
AcDbEntity
  8
0
  6
Continuous
100
AcDbLine
 10
35.3094725248
 20
13.79194619349999
 30
0.0
 11
34.4797753943
 21
14.7807407317
 31
0.0
  0
ARC
  5
3EF
330
1F
100
AcDbEntity
  8
0
  6
Continuous
100
AcDbCircle
 10
34.32897924249999
 20
14.6542077389
 30
0.0
 40
0.1968503937
100
AcDbArc
 50
39.9999994435
 51
161.052186379
  0
ARC
  5
3F0
330
1F
100
AcDbEntity
  8
0
  6
Continuous
100
AcDbCircle
 10
34.7013472414
 20
14.52637040689999
 30
0.0
 40
0.5905511811000001
100
AcDbArc
 50
161.0521861842
 51
179.9999999236
  0
LINE
  5
3F1
330
1F
100
AcDbEntity
  8
0
  6
Continuous
100
AcDbLine
 10
34.1107960603
 20
14.52637040769999
 30
0.0
 11
34.1107960603
 21
12.9515672565
 31
0.0
  0
ARC
  5
3F2
330
1F
100
AcDbEntity
  8
0
  6
Continuous
100
AcDbCircle
 10
34.7013472414
 20
12.9515672573
 30
0.0
 40
0.5905511811000001
100
AcDbArc
 50
180.0000000764
 51
269.9999999453
  0
LINE
  5
3F3
330
1F
100
AcDbEntity
  8
0
  6
Continuous
100
AcDbLine
 10
37.349660073
 20
15.116921588
 30
0.0
 11
37.3102899921
 21
15.116921588
 31
0.0
  0
LINE
  5
3F4
330
1F
100
AcDbEntity
  8
0
  6
Continuous
100
AcDbLine
 10
43.7170952729
 20
15.116921588
 30
0.0
 11
37.48745534639999
 21
15.116921588
 31
0.0
  0
LINE
  5
3F5
330
1F
100
AcDbEntity
  8
0
  6
Continuous
100
AcDbLine
 10
37.48745534639999
 20
12.36101607619999
 30
0.0
 11
37.4448653023
 21
12.36101607619999
 31
0.0
  0
LINE
  5
3F6
330
1F
100
AcDbEntity
  8
0
  6
Continuous
100
AcDbLine
 10
37.4448653023
 20
12.36101607619999
 30
0.0
 11
37.34966006389999
 21
12.36101607619999
 31
0.0
  0
LINE
  5
3F7
330
1F
100
AcDbEntity
  8
0
  6
Continuous
100
AcDbLine
 10
43.7170952729
 20
12.36101607619999
 30
0.0
 11
37.48745534639999
 21
12.36101607619999
 31
0.0
  0
LINE
  5
3F8
330
1F
100
AcDbEntity
  8
0
  6
Continuous
100
AcDbLine
 10
44.20922125709999
 20
12.36101607619999
 30
0.0
 11
44.20922125709999
 21
15.116921588
 31
0.0
  0
LINE
  5
3F9
330
1F
100
AcDbEntity
  8
0
  6
Continuous
100
AcDbLine
 10
43.7170952729
 20
15.116921588
 30
0.0
 11
44.1237004783
 21
15.116921588
 31
0.0
  0
LINE
  5
3FA
330
1F
100
AcDbEntity
  8
0
  6
Continuous
100
AcDbLine
 10
44.1237004783
 20
15.116921588
 30
0.0
 11
44.20922125699999
 21
15.116921588
 31
0.0
  0
LINE
  5
3FB
330
1F
100
AcDbEntity
  8
0
  6
Continuous
100
AcDbLine
 10
44.20922125699999
 20
12.36101607619999
 30
0.0
 11
44.101816374
 21
12.36101607619999
 31
0.0
  0
LINE
  5
3FC
330
1F
100
AcDbEntity
  8
0
  6
Continuous
100
AcDbLine
 10
44.101816374
 20
12.36101607619999
 30
0.0
 11
43.7170952729
 21
12.36101607619999
 31
0.0
  0
LINE
  5
40B
330
1F
100
AcDbEntity
  8
DEFAULT_1
  6
CENTER
100
AcDbLine
 10
36.4572527532
 20
13.7389688321
 30
0.0
 11
36.70725669019999
 21
13.7389688321
 31
0.0
  0
LINE
  5
40C
330
1F
100
AcDbEntity
  8
DEFAULT_1
  6
CENTER
100
AcDbLine
 10
36.4572527532
 20
13.7389688321
 30
0.0
 11
36.2072488162
 21
13.7389688321
 31
0.0
  0
LINE
  5
40D
330
1F
100
AcDbEntity
  8
DEFAULT_1
  6
CENTER
100
AcDbLine
 10
36.4572527532
 20
13.7389688321
 30
0.0
 11
36.4572527532
 21
13.9889727691
 31
0.0
  0
LINE
  5
40E
330
1F
100
AcDbEntity
  8
DEFAULT_1
  6
CENTER
100
AcDbLine
 10
36.4572527532
 20
13.7389688321
 30
0.0
 11
36.4572527532
 21
13.4889648951
 31
0.0
  0
LINE
  5
40F
330
1F
100
AcDbEntity
  8
DEFAULT_1
  6
CENTER
100
AcDbLine
 10
15.6330177484
 20
11.91416568249999
 30
0.0
 11
15.6330177484
 21
15.5637719817
 31
0.0
  0
LINE
  5
410
330
1F
100
AcDbEntity
  8
DEFAULT_1
  6
CENTER
100
AcDbLine
 10
14.3830177484
 20
13.7389688321
 30
0.0
 11
14.6330216854
 21
13.7389688321
 31
0.0
  0
LINE
  5
411
330
1F
100
AcDbEntity
  8
DEFAULT_1
  6
CENTER
100
AcDbLine
 10
14.3830177484
 20
13.7389688321
 30
0.0
 11
14.1330138114
 21
13.7389688321
 31
0.0
  0
LINE
  5
412
330
1F
100
AcDbEntity
  8
DEFAULT_1
  6
CENTER
100
AcDbLine
 10
14.3830177484
 20
13.7389688321
 30
0.0
 11
14.3830177484
 21
13.9889727691
 31
0.0
  0
LINE
  5
413
330
1F
100
AcDbEntity
  8
DEFAULT_1
  6
CENTER
100
AcDbLine
 10
14.3830177484
 20
13.7389688321
 30
0.0
 11
14.3830177484
 21
13.4889648951
 31
0.0
  0
LINE
  5
414
330
1F
100
AcDbEntity
  8
DEFAULT_1
  6
CENTER
100
AcDbLine
 10
16.8830177484
 20
13.7389688321
 30
0.0
 11
17.1330216854
 21
13.7389688321
 31
0.0
  0
LINE
  5
415
330
1F
100
AcDbEntity
  8
DEFAULT_1
  6
CENTER
100
AcDbLine
 10
16.8830177484
 20
13.7389688321
 30
0.0
 11
16.6330138114
 21
13.7389688321
 31
0.0
  0
LINE
  5
416
330
1F
100
AcDbEntity
  8
DEFAULT_1
  6
CENTER
100
AcDbLine
 10
16.8830177484
 20
13.7389688321
 30
0.0
 11
16.8830177484
 21
13.9889727691
 31
0.0
  0
LINE
  5
417
330
1F
100
AcDbEntity
  8
DEFAULT_1
  6
CENTER
100
AcDbLine
 10
16.8830177484
 20
13.7389688321
 30
0.0
 11
16.8830177484
 21
13.4889648951
 31
0.0
  0
LINE
  5
418
330
1F
100
AcDbEntity
  8
DEFAULT_1
  6
CENTER
100
AcDbLine
 10
34.9572527532
 20
13.7389688321
 30
0.0
 11
35.20725669019999
 21
13.7389688321
 31
0.0
  0
LINE
  5
419
330
1F
100
AcDbEntity
  8
DEFAULT_1
  6
CENTER
100
AcDbLine
 10
34.9572527532
 20
13.7389688321
 30
0.0
 11
34.7072488162
 21
13.7389688321
 31
0.0
  0
LINE
  5
41A
330
1F
100
AcDbEntity
  8
DEFAULT_1
  6
CENTER
100
AcDbLine
 10
34.9572527532
 20
13.7389688321
 30
0.0
 11
34.9572527532
 21
13.9889727691
 31
0.0
  0
LINE
  5
41B
330
1F
100
AcDbEntity
  8
DEFAULT_1
  6
CENTER
100
AcDbLine
 10
34.9572527532
 20
13.7389688321
 30
0.0
 11
34.9572527532
 21
13.4889648951
 31
0.0
  0
LINE
  5
41C
330
1F
100
AcDbEntity
  8
DEFAULT_1
  6
CENTER
100
AcDbLine
 10
8.7885295594
 20
13.7389688321
 30
0.0
 11
22.47750593739999
 21
13.7389688321
 31
0.0
  0
LINE
  5
41D
330
1F
100
AcDbEntity
  8
DEFAULT_1
  6
CENTER
100
AcDbLine
 10
19.7747500319
 20
13.85149179749999
 30
0.0
 11
19.7747500319
 21
15.04046817549999
 31
0.0
  0
LINE
  5
41E
330
1F
100
AcDbEntity
  8
DEFAULT_1
  6
CENTER
100
AcDbLine
 10
19.7747500319
 20
13.6346381234
 30
0.0
 11
19.7747500319
 21
12.3767641077
 31
0.0
  0
LINE
  5
41F
330
1F
100
AcDbEntity
  8
DEFAULT_1
  6
CENTER
100
AcDbLine
 10
18.708139139
 20
14.3688900919
 30
0.0
 11
20.87152496579999
 21
14.3688900919
 31
0.0
  0
LINE
  5
420
330
1F
100
AcDbEntity
  8
DEFAULT_1
  6
CENTER
100
AcDbLine
 10
18.6982966193
 20
13.1090475723
 30
0.0
 11
20.8321548871
 21
13.1090475723
 31
0.0
  0
LINE
  5
421
330
1F
100
AcDbEntity
  8
DEFAULT_1
  6
CENTER
100
AcDbLine
 10
12.56293900359999
 20
13.1090475723
 30
0.0
 11
10.50782089329999
 21
13.1090475723
 31
0.0
  0
LINE
  5
422
330
1F
100
AcDbEntity
  8
DEFAULT_1
  6
CENTER
100
AcDbLine
 10
12.5530964839
 20
14.3688900919
 30
0.0
 11
10.50782089329999
 21
14.3688900919
 31
0.0
  0
LINE
  5
423
330
1F
100
AcDbEntity
  8
DEFAULT_1
  6
CENTER
100
AcDbLine
 10
11.4912854649
 20
13.6346381234
 30
0.0
 11
11.4912854649
 21
12.5145593833
 31
0.0
  0
LINE
  5
424
330
1F
100
AcDbEntity
  8
DEFAULT_1
  6
CENTER
100
AcDbLine
 10
11.4912854649
 20
13.85149179749999
 30
0.0
 11
11.4912854649
 21
14.99490613099999
 31
0.0
  0
LINE
  5
425
330
1F
100
AcDbEntity
  8
0
  6
Continuous
100
AcDbLine
 10
53.3929245283
 20
41.7096108491
 30
0.0
 11
35.53042452829999
 21
41.7096108491
 31
0.0
  0
LINE
  5
426
330
1F
100
AcDbEntity
  8
0
  6
Continuous
100
AcDbLine
 10
53.3679245283
 20
41.7096108491
 30
0.0
 11
53.3679245283
 21
38.58461084909999
 31
0.0
  0
LINE
  5
427
330
1F
100
AcDbEntity
  8
0
  6
Continuous
100
AcDbLine
 10
53.3679245283
 20
41.0846108491
 30
0.0
 11
35.5554245283
 21
41.0846108491
 31
0.0
  0
LINE
  5
428
330
1F
100
AcDbEntity
  8
0
  6
Continuous
100
AcDbLine
 10
53.3679245283
 20
40.4596108491
 30
0.0
 11
35.5554245283
 21
40.4596108491
 31
0.0
  0
LINE
  5
429
330
1F
100
AcDbEntity
  8
0
  6
Continuous
100
AcDbLine
 10
53.3679245283
 20
39.83461084909999
 30
0.0
 11
35.5554245283
 21
39.83461084909999
 31
0.0
  0
LINE
  5
42A
330
1F
100
AcDbEntity
  8
0
  6
Continuous
100
AcDbLine
 10
53.3679245283
 20
39.20961084909999
 30
0.0
 11
35.5554245283
 21
39.20961084909999
 31
0.0
  0
LINE
  5
42B
330
1F
100
AcDbEntity
  8
0
  6
Continuous
100
AcDbLine
 10
53.3929245283
 20
38.58461084909999
 30
0.0
 11
35.53042452829999
 21
38.58461084909999
 31
0.0
  0
LINE
  5
42C
330
1F
100
AcDbEntity
  8
0
  6
Continuous
100
AcDbLine
 10
50.5554245283
 20
41.0846108491
 30
0.0
 11
50.5554245283
 21
38.58461084909999
 31
0.0
  0
LINE
  5
42D
330
1F
100
AcDbEntity
  8
0
  6
Continuous
100
AcDbLine
 10
49.3054245283
 20
41.0846108491
 30
0.0
 11
49.3054245283
 21
38.58461084909999
 31
0.0
  0
LINE
  5
42E
330
1F
100
AcDbEntity
  8
0
  6
Continuous
100
AcDbLine
 10
46.8054245283
 20
41.0846108491
 30
0.0
 11
46.8054245283
 21
38.58461084909999
 31
0.0
  0
LINE
  5
42F
330
1F
100
AcDbEntity
  8
0
  6
Continuous
100
AcDbLine
 10
36.8054245283
 20
41.0846108491
 30
0.0
 11
36.8054245283
 21
38.58461084909999
 31
0.0
  0
LINE
  5
430
330
1F
100
AcDbEntity
  8
0
  6
Continuous
100
AcDbLine
 10
35.5554245283
 20
41.7096108491
 30
0.0
 11
35.5554245283
 21
38.58461084909999
 31
0.0
  0
TEXT
  5
431
330
1F
100
AcDbEntity
  8
0
  6
Continuous
100
AcDbText
 10
43.42000786163334
 20
41.2408608491
 30
0.0
 40
0.3125
  1
REVISIONS
 41
0.8
 72
     1
 11
44.4616745283
 21
41.2408608491
 31
0.0
100
AcDbText
  0
TEXT
  5
432
330
1F
100
AcDbEntity
  8
0
  6
Continuous
100
AcDbText
 10
50.7429245283
 20
40.6158608491
 30
0.0
 40
0.3125
  1
APPROVED DATE
 41
0.6
 72
     1
 11
51.9616745283
 21
40.6158608491
 31
0.0
100
AcDbText
  0
TEXT
  5
433
330
1F
100
AcDbEntity
  8
0
  6
Continuous
100
AcDbText
 10
49.6804245283
 20
40.6158608491
 30
0.0
 40
0.3125
  1
CHK
 41
0.6
 72
     1
 11
49.9304245283
 21
40.6158608491
 31
0.0
100
AcDbText
  0
TEXT
  5
434
330
1F
100
AcDbEntity
  8
0
  6
Continuous
100
AcDbText
 10
47.3366745283
 20
40.6158608491
 30
0.0
 40
0.3125
  1
EFF DATE
 41
0.6
 72
     1
 11
48.0554245283
 21
40.6158608491
 31
0.0
100
AcDbText
  0
TEXT
  5
435
330
1F
100
AcDbEntity
  8
0
  6
Continuous
100
AcDbText
 10
40.8679245283
 20
40.6158608491
 30
0.0
 40
0.3125
  1
DESCRIPTION
 41
0.6
 72
     1
 11
41.8054245283
 21
40.6158608491
 31
0.0
100
AcDbText
  0
TEXT
  5
436
330
1F
100
AcDbEntity
  8
0
  6
Continuous
100
AcDbText
 10
35.8991745283
 20
40.6158608491
 30
0.0
 40
0.3125
  1
REV
 41
0.6
 72
     1
 11
36.1804245283
 21
40.6158608491
 31
0.0
100
AcDbText
  0
TEXT
  5
437
330
1F
100
AcDbEntity
  8
0
  6
Continuous
100
AcDbText
 10
51.59709119496667
 20
39.95179834909999
 30
0.0
 40
0.390625
  1
B.H.
 41
0.8
 72
     1
 11
51.9616745283
 21
39.95179834909999
 31
0.0
100
AcDbText
  0
TEXT
  5
438
330
1F
100
AcDbEntity
  8
0
  6
Continuous
100
AcDbText
 10
47.0397995283
 20
39.95179834909999
 30
0.0
 40
0.390625
  1
7-28-06
 41
0.8
 72
     1
 11
48.0554245283
 21
39.95179834909999
 31
0.0
100
AcDbText
  0
TEXT
  5
439
330
1F
100
AcDbEntity
  8
0
  6
Continuous
100
AcDbText
 10
36.9616745283
 20
39.95179834909999
 30
0.0
 40
0.390625
  1
RELEASE PER ECO 7343 JD
 41
0.8
100
AcDbText
  0
TEXT
  5
43A
330
1F
100
AcDbEntity
  8
0
  6
Continuous
100
AcDbText
 10
36.07625786163334
 20
39.95179834909999
 30
0.0
 40
0.390625
  1
A
 41
0.8
 72
     1
 11
36.1804245283
 21
39.95179834909999
 31
0.0
100
AcDbText
  0
LINE
  5
43B
330
1F
100
AcDbEntity
  8
DRW_FORMAT
  6
Continuous
100
AcDbLine
 10
53.4031965801
 20
0.8002264173
 30
0.0
 11
28.99584363889999
 21
0.8002264173
 31
0.0
  0
LINE
  5
43C
330
1F
100
AcDbEntity
  8
DRW_FORMAT
  6
Continuous
100
AcDbLine
 10
53.3870201095
 20
0.8002264173
 30
0.0
 11
53.3870201095
 21
7.2064764173
 31
0.0
  0
LINE
  5
43D
330
1F
100
AcDbEntity
  8
DRW_FORMAT
  6
Continuous
100
AcDbLine
 10
53.3870201095
 20
1.4252264173
 30
0.0
 11
29.01202010949999
 21
1.4252264173
 31
0.0
  0
LINE
  5
43E
330
1F
100
AcDbEntity
  8
DRW_FORMAT
  6
Continuous
100
AcDbLine
 10
40.8870201095
 20
2.362726417299999
 30
0.0
 11
34.6370201095
 21
2.362726417299999
 31
0.0
  0
LINE
  5
43F
330
1F
100
AcDbEntity
  8
DRW_FORMAT
  6
Continuous
100
AcDbLine
 10
53.3870201095
 20
2.675226417299999
 30
0.0
 11
40.8870201095
 21
2.675226417299999
 31
0.0
  0
LINE
  5
440
330
1F
100
AcDbEntity
  8
DRW_FORMAT
  6
Continuous
100
AcDbLine
 10
34.6370201095
 20
2.675226417299999
 30
0.0
 11
29.01202010949999
 21
2.675226417299999
 31
0.0
  0
LINE
  5
441
330
1F
100
AcDbEntity
  8
DRW_FORMAT
  6
Continuous
100
AcDbLine
 10
40.8870201095
 20
3.3002264173
 30
0.0
 11
34.6370201095
 21
3.3002264173
 31
0.0
  0
LINE
  5
442
330
1F
100
AcDbEntity
  8
DRW_FORMAT
  6
Continuous
100
AcDbLine
 10
34.6370201095
 20
3.9252264173
 30
0.0
 11
29.01202010949999
 21
3.9252264173
 31
0.0
  0
LINE
  5
443
330
1F
100
AcDbEntity
  8
DRW_FORMAT
  6
Continuous
100
AcDbLine
 10
40.8870201095
 20
4.2377264173
 30
0.0
 11
34.6370201095
 21
4.2377264173
 31
0.0
  0
LINE
  5
444
330
1F
100
AcDbEntity
  8
DRW_FORMAT
  6
Continuous
100
AcDbLine
 10
40.8870201095
 20
5.1752264173
 30
0.0
 11
34.6370201095
 21
5.1752264173
 31
0.0
  0
LINE
  5
445
330
1F
100
AcDbEntity
  8
DRW_FORMAT
  6
Continuous
100
AcDbLine
 10
53.3870201095
 20
5.4877264173
 30
0.0
 11
40.8870201095
 21
5.4877264173
 31
0.0
  0
LINE
  5
446
330
1F
100
AcDbEntity
  8
DRW_FORMAT
  6
Continuous
100
AcDbLine
 10
40.8870201095
 20
5.9564764173
 30
0.0
 11
34.6370201095
 21
5.9564764173
 31
0.0
  0
LINE
  5
447
330
1F
100
AcDbEntity
  8
DRW_FORMAT
  6
Continuous
100
AcDbLine
 10
53.4031965801
 20
7.2064764173
 30
0.0
 11
28.99584363889999
 21
7.2064764173
 31
0.0
  0
LINE
  5
448
330
1F
100
AcDbEntity
  8
DRW_FORMAT
  6
Continuous
100
AcDbLine
 10
52.1370201095
 20
1.4252264173
 30
0.0
 11
52.1370201095
 21
2.675226417299999
 31
0.0
  0
LINE
  5
449
330
1F
100
AcDbEntity
  8
DRW_FORMAT
  6
Continuous
100
AcDbLine
 10
49.9495201095
 20
0.8002264173
 30
0.0
 11
49.9495201095
 21
1.4252264173
 31
0.0
  0
LINE
  5
44A
330
1F
100
AcDbEntity
  8
DRW_FORMAT
  6
Continuous
100
AcDbLine
 10
44.6370201095
 20
1.4252264173
 30
0.0
 11
44.6370201095
 21
2.675226417299999
 31
0.0
  0
LINE
  5
44B
330
1F
100
AcDbEntity
  8
DRW_FORMAT
  6
Continuous
100
AcDbLine
 10
43.3870201095
 20
0.8002264173
 30
0.0
 11
43.3870201095
 21
1.4252264173
 31
0.0
  0
LINE
  5
44C
330
1F
100
AcDbEntity
  8
DRW_FORMAT
  6
Continuous
100
AcDbLine
 10
42.1370201095
 20
1.4252264173
 30
0.0
 11
42.1370201095
 21
2.675226417299999
 31
0.0
  0
LINE
  5
44D
330
1F
100
AcDbEntity
  8
DRW_FORMAT
  6
Continuous
100
AcDbLine
 10
40.8870201095
 20
0.8002264173
 30
0.0
 11
40.8870201095
 21
7.2064764173
 31
0.0
  0
LINE
  5
44E
330
1F
100
AcDbEntity
  8
DRW_FORMAT
  6
Continuous
100
AcDbLine
 10
39.01202010949999
 20
1.4252264173
 30
0.0
 11
39.01202010949999
 21
5.9564764173
 31
0.0
  0
LINE
  5
44F
330
1F
100
AcDbEntity
  8
DRW_FORMAT
  6
Continuous
100
AcDbLine
 10
34.6370201095
 20
0.8002264173
 30
0.0
 11
34.6370201095
 21
7.2064764173
 31
0.0
  0
LINE
  5
450
330
1F
100
AcDbEntity
  8
DRW_FORMAT
  6
Continuous
100
AcDbLine
 10
29.01202010949999
 20
0.8002264173
 30
0.0
 11
29.01202010949999
 21
7.2064764173
 31
0.0
  0
MTEXT
  5
451
330
1F
100
AcDbEntity
  8
DRW_FORMAT
  6
Continuous
100
AcDbMText
 10
52.1370201095
 20
1.268976417299999
 30
0.0
 40
0.3125
 41
1.5
 71
     2
 72
     1
  1
1 of 1
 73
     1
 44
1.0
  0
MTEXT
  5
452
330
1F
100
AcDbEntity
  8
DRW_FORMAT
  6
Continuous
100
AcDbMText
 10
46.6682701095
 20
1.237726417299999
 30
0.0
 40
0.25
 41
3.6
 71
     2
 72
     1
  1
RD-000380-01.A.10+
 73
     1
 44
1.0
  0
TEXT
  5
453
330
1F
100
AcDbEntity
  8
DRW_FORMAT
  6
Continuous
100
AcDbText
 10
42.3557701095
 20
0.9564764173
 30
0.0
 40
0.3125
  1
0.400
 41
0.8
 72
     2
 11
43.2307701095
 21
0.9564764173
 31
0.0
100
AcDbText
  0
MTEXT
  5
454
330
1F
100
AcDbEntity
  8
DRW_FORMAT
  6
Continuous
100
AcDbMText
 10
37.7620201095
 20
1.237726417299999
 30
0.0
 40
0.25
 41
4.2
 71
     2
 72
     1
  1
CH-000441-GP.main.A.0
 73
     1
 44
1.0
  0
TEXT
  5
455
330
1F
100
AcDbEntity
  8
DRW_FORMAT
  6
Continuous
100
AcDbText
 10
29.36618677616666
 20
0.9564764173
 30
0.0
 40
0.3125
  1
DO NOT SCALE DRAWING
 41
0.8
 72
     1
 11
31.82452010949999
 21
0.9564764173
 31
0.0
100
AcDbText
  0
TEXT
  5
456
330
1F
100
AcDbEntity
  8
DRW_FORMAT
  6
Continuous
100
AcDbText
 10
50.1057701095
 20
1.156476417299999
 30
0.0
 40
0.225
  1
SHEET
 41
0.8
100
AcDbText
  0
TEXT
  5
457
330
1F
100
AcDbEntity
  8
DRW_FORMAT
  6
Continuous
100
AcDbText
 10
41.0432701095
 20
1.156476417299999
 30
0.0
 40
0.225
  1
SCALE
 41
0.8
100
AcDbText
  0
TEXT
  5
458
330
1F
100
AcDbEntity
  8
DRW_FORMAT
  6
Continuous
100
AcDbText
 10
52.65785344283333
 20
1.6986639173
 30
0.0
 40
0.390625
  1
A
 41
0.8
 72
     1
 11
52.7620201095
 21
1.6986639173
 31
0.0
100
AcDbText
  0
TEXT
  5
459
330
1F
100
AcDbEntity
  8
DRW_FORMAT
  6
Continuous
100
AcDbText
 10
46.7463951095
 20
1.6986639173
 30
0.0
 40
0.390625
  1
RD-000380-01
 41
0.8
 72
     1
 11
48.3870201095
 21
1.6986639173
 31
0.0
100
AcDbText
  0
TEXT
  5
45A
330
1F
100
AcDbEntity
  8
DRW_FORMAT
  6
Continuous
100
AcDbText
 10
42.61410344283333
 20
1.6205389173
 30
0.0
 40
0.5
  1
00PW4
 41
0.8
 72
     2
 11
44.4807701095
 21
1.6205389173
 31
0.0
100
AcDbText
  0
TEXT
  5
45B
330
1F
100
AcDbEntity
  8
DRW_FORMAT
  6
Continuous
100
AcDbText
 10
41.37868677616666
 20
1.6439764173
 30
0.0
 40
0.5
  1
C
 41
0.8
 72
     1
 11
41.5120201095
 21
1.6439764173
 31
0.0
100
AcDbText
  0
MTEXT
  5
45C
330
1F
100
AcDbEntity
  8
DRW_FORMAT
  6
Continuous
100
AcDbMText
 10
39.94952010949999
 20
2.050226417299999
 30
0.0
 40
0.3125
 41
1.875
 71
     2
 72
     1
  1
28-Jul-06 
  7
TEXTSTYLE_1
 73
     1
 44
1.0
  0
TEXT
  5
45D
330
1F
100
AcDbEntity
  8
DRW_FORMAT
  6
Continuous
100
AcDbText
 10
35.5745201095
 20
1.5424139173
 30
0.0
 40
0.390625
  1
D. DELARM
 41
0.8
 72
     1
 11
36.8245201095
 21
1.5424139173
 31
0.0
100
AcDbText
  0
TEXT
  5
45E
330
1F
100
AcDbEntity
  8
DRW_FORMAT
  6
Continuous
100
AcDbText
 10
31.25160344283333
 20
1.6986639173
 30
0.0
 40
0.390625
  1
NONE
 41
0.8
 72
     1
 11
31.82452010949999
 21
1.6986639173
 31
0.0
100
AcDbText
  0
TEXT
  5
45F
330
1F
100
AcDbEntity
  8
DRW_FORMAT
  6
Continuous
100
AcDbText
 10
34.7932701095
 20
2.093976417299999
 30
0.0
 40
0.225
  1
ISSUED
 41
0.8
100
AcDbText
  0
TEXT
  5
460
330
1F
100
AcDbEntity
  8
DRW_FORMAT
  6
Continuous
100
AcDbText
 10
52.4920201095
 20
2.406476417299999
 30
0.0
 40
0.225
  1
REV
 41
0.8
 72
     1
 11
52.7620201095
 21
2.406476417299999
 31
0.0
100
AcDbText
  0
TEXT
  5
461
330
1F
100
AcDbEntity
  8
DRW_FORMAT
  6
Continuous
100
AcDbText
 10
44.7932701095
 20
2.406476417299999
 30
0.0
 40
0.225
  1
DWG NO.
 41
0.8
100
AcDbText
  0
TEXT
  5
462
330
1F
100
AcDbEntity
  8
DRW_FORMAT
  6
Continuous
100
AcDbText
 10
42.2932701095
 20
2.406476417299999
 30
0.0
 40
0.225
  1
CAGE CODE
 41
0.8
100
AcDbText
  0
TEXT
  5
463
330
1F
100
AcDbEntity
  8
DRW_FORMAT
  6
Continuous
100
AcDbText
 10
41.2120201095
 20
2.406476417299999
 30
0.0
 40
0.225
  1
SIZE
 41
0.8
 72
     1
 11
41.5120201095
 21
2.406476417299999
 31
0.0
100
AcDbText
  0
MTEXT
  5
464
330
1F
100
AcDbEntity
  8
DRW_FORMAT
  6
Continuous
100
AcDbMText
 10
39.94952010949999
 20
2.9877264173
 30
0.0
 40
0.3125
 41
1.875
 71
     2
 72
     1
  1
28-Jul-06 
  7
TEXTSTYLE_1
 73
     1
 44
1.0
  0
TEXT
  5
465
330
1F
100
AcDbEntity
  8
DRW_FORMAT
  6
Continuous
100
AcDbText
 10
35.62660344283333
 20
2.479913917299999
 30
0.0
 40
0.390625
  1
A. RUTKIN
 41
0.8
 72
     1
 11
36.8245201095
 21
2.479913917299999
 31
0.0
100
AcDbText
  0
TEXT
  5
466
330
1F
100
AcDbEntity
  8
DRW_FORMAT
  6
Continuous
100
AcDbText
 10
29.16827010949999
 20
2.254913917299999
 30
0.0
 40
0.225
  1
FINISH
 41
0.8
100
AcDbText
  0
MTEXT
  5
467
330
1F
100
AcDbEntity
  8
DRW_FORMAT
  6
Continuous
100
AcDbMText
 10
47.1370201095
 20
5.0814764173
 30
0.0
 40
0.5
 41
8.4
 71
     2
 72
     1
  1
BRACKET, YOKE, YM-300\P \P 
 73
     1
 44
1.0
  0
TEXT
  5
468
330
1F
100
AcDbEntity
  8
DRW_FORMAT
  6
Continuous
100
AcDbText
 10
31.25160344283333
 20
2.9486639173
 30
0.0
 40
0.390625
  1
NONE
 41
0.8
 72
     1
 11
31.82452010949999
 21
2.9486639173
 31
0.0
100
AcDbText
  0
TEXT
  5
469
330
1F
100
AcDbEntity
  8
DRW_FORMAT
  6
Continuous
100
AcDbText
 10
34.7932701095
 20
3.0314764173
 30
0.0
 40
0.225
  1
MFG ENG
 41
0.8
100
AcDbText
  0
TEXT
  5
46A
330
1F
100
AcDbEntity
  8
DRW_FORMAT
  6
Continuous
100
AcDbText
 10
39.1995201095
 20
3.6127264173
 30
0.0
 40
0.3125
  1
28-Jul-06
 41
0.6
 72
     1
 11
39.94952010949999
 21
3.6127264173
 31
0.0
100
AcDbText
  0
TEXT
  5
46B
330
1F
100
AcDbEntity
  8
DRW_FORMAT
  6
Continuous
100
AcDbText
 10
35.4182701095
 20
3.4174139173
 30
0.0
 40
0.390625
  1
B. HAWKINS
 41
0.8
 72
     1
 11
36.8245201095
 21
3.4174139173
 31
0.0
100
AcDbText
  0
TEXT
  5
46C
330
1F
100
AcDbEntity
  8
DRW_FORMAT
  6
Continuous
100
AcDbText
 10
29.16827010949999
 20
3.5049139173
 30
0.0
 40
0.225
  1
MATERIAL
 41
0.8
100
AcDbText
  0
TEXT
  5
46D
330
1F
100
AcDbEntity
  8
DRW_FORMAT
  6
Continuous
100
AcDbText
 10
34.7932701095
 20
3.9689764173
 30
0.0
 40
0.225
  1
CHECKED
 41
0.8
100
AcDbText
  0
TEXT
  5
46E
330
1F
100
AcDbEntity
  8
DRW_FORMAT
  6
Continuous
100
AcDbText
 10
29.90452010949999
 20
4.1205389173
 30
0.0
 40
0.225
  1
DEBURR EDGES .010 R MAX
 41
0.8
 72
     1
 11
31.82452010949999
 21
4.1205389173
 31
0.0
100
AcDbText
  0
TEXT
  5
46F
330
1F
100
AcDbEntity
  8
DRW_FORMAT
  6
Continuous
100
AcDbText
 10
39.1995201095
 20
4.5502264173
 30
0.0
 40
0.3125
  1
28-Jul-06
 41
0.6
 72
     1
 11
39.94952010949999
 21
4.5502264173
 31
0.0
100
AcDbText
  0
TEXT
  5
470
330
1F
100
AcDbEntity
  8
DRW_FORMAT
  6
Continuous
100
AcDbText
 10
35.5745201095
 20
4.3549139173
 30
0.0
 40
0.390625
  1
J. DELARM
 41
0.8
 72
     1
 11
36.8245201095
 21
4.3549139173
 31
0.0
100
AcDbText
  0
TEXT
  5
471
330
1F
100
AcDbEntity
  8
DRW_FORMAT
  6
Continuous
100
AcDbText
 10
33.3651451094875
 20
4.7455389173
 30
0.0
 40
0.225
  1
%%p1/2
 41
0.8916666667000001
 72
     1
 11
33.6995201095
 21
4.7455389173
 31
0.0
100
AcDbText
  0
TEXT
  5
472
330
1F
100
AcDbEntity
  8
DRW_FORMAT
  6
Continuous
100
AcDbText
 10
30.94327010949999
 20
4.7455389173
 30
0.0
 40
0.225
  1
.XXX 
 41
0.8
 72
     1
 11
31.33327010949999
 21
4.7455389173
 31
0.0
100
AcDbText
  0
TEXT
  5
473
330
1F
100
AcDbEntity
  8
DRW_FORMAT
  6
Continuous
100
AcDbText
 10
31.9470201095125
 20
4.7455389173
 30
0.0
 40
0.225
  1
%%p.010
 41
0.8733333332999999
 72
     1
 11
32.27452010949999
 21
4.7455389173
 31
0.0
100
AcDbText
  0
TEXT
  5
474
330
1F
100
AcDbEntity
  8
DRW_FORMAT
  6
Continuous
100
AcDbText
 10
29.2482701095
 20
4.7455389173
 30
0.0
 40
0.225
  1
.XX 
 41
0.8
 72
     1
 11
29.54827010949999
 21
4.7455389173
 31
0.0
100
AcDbText
  0
TEXT
  5
475
330
1F
100
AcDbEntity
  8
DRW_FORMAT
  6
Continuous
100
AcDbText
 10
30.02530135948937
 20
4.7455389173
 30
0.0
 40
0.225
  1
%%p.02
 41
0.8916666667000001
 72
     1
 11
30.3095201095
 21
4.7455389173
 31
0.0
100
AcDbText
  0
TEXT
  5
476
330
1F
100
AcDbEntity
  8
DRW_FORMAT
  6
Continuous
100
AcDbText
 10
34.7932701095
 20
4.9064764173
 30
0.0
 40
0.225
  1
DRAWN
 41
0.8
100
AcDbText
  0
TEXT
  5
477
330
1F
100
AcDbEntity
  8
DRW_FORMAT
  6
Continuous
100
AcDbText
 10
39.6195201095
 20
5.4533514173
 30
0.0
 40
0.225
  1
DATE
 41
0.8
 72
     1
 11
39.94952010949999
 21
5.4533514173
 31
0.0
100
AcDbText
  0
TEXT
  5
478
330
1F
100
AcDbEntity
  8
DRW_FORMAT
  6
Continuous
100
AcDbText
 10
36.0145201095
 20
5.4533514173
 30
0.0
 40
0.225
  1
APPROVALS
 41
0.8
 72
     1
 11
36.8245201095
 21
5.4533514173
 31
0.0
100
AcDbText
  0
TEXT
  5
479
330
1F
100
AcDbEntity
  8
DRW_FORMAT
  6
Continuous
100
AcDbText
 10
33.1895201095
 20
5.2189764173
 30
0.0
 40
0.225
  1
ANGLES
 41
0.8
 72
     1
 11
33.6995201095
 21
5.2189764173
 31
0.0
100
AcDbText
  0
TEXT
  5
47A
330
1F
100
AcDbEntity
  8
DRW_FORMAT
  6
Continuous
100
AcDbText
 10
31.16452010949999
 20
5.2189764173
 30
0.0
 40
0.225
  1
DECIMALS
 41
0.8
 72
     1
 11
31.82452010949999
 21
5.2189764173
 31
0.0
100
AcDbText
  0
TEXT
  5
47B
330
1F
100
AcDbEntity
  8
DRW_FORMAT
  6
Continuous
100
AcDbText
 10
29.28952010949999
 20
5.2189764173
 30
0.0
 40
0.225
  1
DECIMALS
 41
0.8
 72
     1
 11
29.94952010949999
 21
5.2189764173
 31
0.0
100
AcDbText
  0
TEXT
  5
47C
330
1F
100
AcDbEntity
  8
DRW_FORMAT
  6
Continuous
100
AcDbText
 10
45.4182701095
 20
5.6830389173
 30
0.0
 40
0.3125
  1
COSTA MESA, CA  92626
 41
0.8
100
AcDbText
  0
TEXT
  5
47D
330
1F
100
AcDbEntity
  8
DRW_FORMAT
  6
Continuous
100
AcDbText
 10
30.56452010949999
 20
5.6830389173
 30
0.0
 40
0.225
  1
TOLERANCES ARE:
 41
0.8
 72
     1
 11
31.82452010949999
 21
5.6830389173
 31
0.0
100
AcDbText
  0
TEXT
  5
47E
330
1F
100
AcDbEntity
  8
DRW_FORMAT
  6
Continuous
100
AcDbText
 10
45.4182701095
 20
6.1517889173
 30
0.0
 40
0.3125
  1
1675 MACARTHUR BOULEVARD
 41
0.8
100
AcDbText
  0
TEXT
  5
47F
330
1F
100
AcDbEntity
  8
DRW_FORMAT
  6
Continuous
100
AcDbText
 10
45.4182701095
 20
6.6205389173
 30
0.0
 40
0.390625
  1
QSC AUDIO PRODUCTS, INC.
 41
0.8
100
AcDbText
  0
TEXT
  5
480
330
1F
100
AcDbEntity
  8
DRW_FORMAT
  6
Continuous
100
AcDbText
 10
34.7932701095
 20
6.9330389173
 30
0.0
 40
0.225
  1
CONTRACT NO.
 41
0.8
100
AcDbText
  0
MTEXT
  5
481
330
1F
100
AcDbEntity
  8
DRW_FORMAT
  6
Continuous
100
AcDbMText
 10
31.82452010949999
 20
6.8549139173
 30
0.0
 40
0.225
 41
4.679999999999999
 71
     2
 72
     1
  1
UNLESS OTHERWISE SPECIFIED\PDIMENSIONS ARE IN INCHES.
 73
     1
 44
1.0
  0
LINE
  5
482
330
1F
100
AcDbEntity
  8
DRW_FORMAT
  6
Continuous
100
AcDbLine
 10
53.38185056229999
 20
16.460416863
 30
0.0
 11
53.38185056229999
 21
7.0530639219
 31
0.0
  0
LINE
  5
483
330
1F
100
AcDbEntity
  8
DRW_FORMAT
  6
Continuous
100
AcDbLine
 10
53.38185056229999
 20
16.4442403925
 30
0.0
 11
54.31935056229999
 21
16.4442403925
 31
0.0
  0
LINE
  5
484
330
1F
100
AcDbEntity
  8
DRW_FORMAT
  6
Continuous
100
AcDbLine
 10
54.31935056229999
 20
16.460416863
 30
0.0
 11
54.31935056229999
 21
7.0530639219
 31
0.0
  0
LINE
  5
485
330
1F
100
AcDbEntity
  8
DRW_FORMAT
  6
Continuous
100
AcDbLine
 10
53.38185056229999
 20
9.569240392499999
 30
0.0
 11
54.31935056229999
 21
9.569240392499999
 31
0.0
  0
LINE
  5
486
330
1F
100
AcDbEntity
  8
DRW_FORMAT
  6
Continuous
100
AcDbLine
 10
53.38185056229999
 20
8.319240392499999
 30
0.0
 11
54.31935056229999
 21
8.319240392499999
 31
0.0
  0
LINE
  5
487
330
1F
100
AcDbEntity
  8
DRW_FORMAT
  6
Continuous
100
AcDbLine
 10
53.38185056229999
 20
7.0692403925
 30
0.0
 11
54.31935056229999
 21
7.0692403925
 31
0.0
  0
TEXT
  5
488
330
1F
100
AcDbEntity
  8
DRW_FORMAT
  6
Continuous
100
AcDbText
 10
53.46935056229999
 20
14.8967403925
 30
0.0
 40
0.45
  1
RD-000380-01
 50
270.0
 41
0.8
 72
     1
 11
53.46935056229999
 21
13.0067403925
 31
0.0
100
AcDbText
  0
TEXT
  5
489
330
1F
100
AcDbEntity
  8
DRW_FORMAT
  6
Continuous
100
AcDbText
 10
53.53810056229999
 20
8.985907059166665
 30
0.0
 40
0.3125
  1
1
 50
270.0
 41
0.8
 72
     1
 11
53.53810056229999
 21
8.944240392499999
 31
0.0
100
AcDbText
  0
TEXT
  5
48A
330
1F
100
AcDbEntity
  8
DRW_FORMAT
  6
Continuous
100
AcDbText
 10
53.49903806229999
 20
7.798407059166667
 30
0.0
 40
0.390625
  1
A
 50
270.0
 41
0.8
 72
     1
 11
53.49903806229999
 21
7.6942403925
 31
0.0
100
AcDbText
  0
TEXT
  5
48B
330
1F
100
AcDbEntity
  8
DRW_FORMAT
  6
Continuous
100
AcDbText
 10
54.05060056229999
 20
16.2879903925
 30
0.0
 40
0.225
  1
DWG NO.
 50
270.0
 41
0.8
100
AcDbText
  0
TEXT
  5
48C
330
1F
100
AcDbEntity
  8
DRW_FORMAT
  6
Continuous
100
AcDbText
 10
54.05060056229999
 20
9.094240392499999
 30
0.0
 40
0.225
  1
SH
 50
270.0
 41
0.8
 72
     1
 11
54.05060056229999
 21
8.944240392499999
 31
0.0
100
AcDbText
  0
TEXT
  5
48D
330
1F
100
AcDbEntity
  8
DRW_FORMAT
  6
Continuous
100
AcDbText
 10
54.05060056229999
 20
7.9642403925
 30
0.0
 40
0.225
  1
REV
 50
270.0
 41
0.8
 72
     1
 11
54.05060056229999
 21
7.6942403925
 31
0.0
100
AcDbText
  0
MTEXT
  5
48E
330
1F
100
AcDbEntity
  8
0
  6
Continuous
100
AcDbMText
 10
1.757738611499999
 20
2.7948124347
 30
0.0
 40
0.390625
 41
20.9375
 71
     1
 72
     1
  1
1. PARTS ARE SYMMETRICAL ABOUT CENTER LINES UNLESS OTHERWISE NOTED.\PNOTE: UNLESS OTHERWISE SPECIFIED
 73
     1
 44
1.0
  0
TEXT
  5
48F
330
1F
100
AcDbEntity
  8
0
  6
Continuous
100
AcDbText
 10
38.38278148229999
 20
3.0066771449
 30
0.0
 40
0.225
  1
MKT
 41
0.8
100
AcDbText
  0
TEXT
  5
498
330
1F
100
AcDbEntity
  8
0
  6
Continuous
100
AcDbText
 10
7.2095866182
 20
17.30420062529999
 30
0.0
 40
0.390625
  1
(
 41
0.8
100
AcDbText
  0
TEXT
  5
499
330
1F
100
AcDbEntity
  8
0
  6
Continuous
100
AcDbText
 10
9.709586618200001
 20
17.30420062529999
 30
0.0
 40
0.390625
  1
)
 41
0.8
100
AcDbText
  0
TEXT
  5
49A
330
1F
100
AcDbEntity
  8
0
  6
Continuous
100
AcDbText
 10
7.5220866182
 20
17.30420062529999
 30
0.0
 40
0.390625
  1
4.14
 41
0.8
100
AcDbText
  0
TEXT
  5
49B
330
1F
100
AcDbEntity
  8
0
  6
Continuous
100
AcDbText
 10
7.8345866182
 20
16.71826312529999
 30
0.0
 40
0.390625
  1
105,2
 41
0.8
100
AcDbText
  0
TEXT
  5
49C
330
1F
100
AcDbEntity
  8
0
  6
Continuous
100
AcDbText
 10
7.5220866182
 20
16.71826312529999
 30
0.0
 40
0.390625
  1
[
 41
0.8
100
AcDbText
  0
TEXT
  5
49D
330
1F
100
AcDbEntity
  8
0
  6
Continuous
100
AcDbText
 10
9.397086618200001
 20
16.71826312529999
 30
0.0
 40
0.390625
  1
]
 41
0.8
100
AcDbText
  0
LINE
  5
49E
330
1F
100
AcDbEntity
  8
0
  6
Continuous
100
AcDbLine
 10
15.6330177484
 20
15.7200219817
 30
0.0
 11
15.6330177484
 21
17.81201312529999
 31
0.0
  0
LINE
  5
49F
330
1F
100
AcDbEntity
  8
0
  6
Continuous
100
AcDbLine
 10
11.4912854649
 20
15.489064739
 30
0.0
 11
11.4912854649
 21
17.81201312529999
 31
0.0
  0
LINE
  5
4A0
330
1F
100
AcDbEntity
  8
0
  6
Continuous
100
AcDbLine
 10
15.6330177484
 20
17.49951312529999
 30
0.0
 11
16.8830177484
 21
17.49951312529999
 31
0.0
  0
LINE
  5
4A1
330
1F
100
AcDbEntity
  8
0
  6
Continuous
100
AcDbLine
 10
11.4912854649
 20
17.49951312529999
 30
0.0
 11
10.2173991182
 21
17.49951312529999
 31
0.0
  0
INSERT
  5
4A2
330
1F
100
AcDbEntity
  8
0
  6
Continuous
100
AcDbBlockReference
  2
_CLOSED
 10
15.6330177484
 20
17.49951312529999
 30
0.0
 41
0.46875
 42
0.46875
 43
0.46875
 50
180.0
  0
INSERT
  5
4A3
330
1F
100
AcDbEntity
  8
0
  6
Continuous
100
AcDbBlockReference
  2
_CLOSED
 10
11.4912854649
 20
17.49951312529999
 30
0.0
 41
0.46875
 42
0.46875
 43
0.46875
  0
TEXT
  5
4A4
330
1F
100
AcDbEntity
  8
0
  6
Continuous
100
AcDbText
 10
7.032026112999999
 20
10.8415525129
 30
0.0
 40
0.390625
  1
(
 41
0.8
100
AcDbText
  0
TEXT
  5
4A5
330
1F
100
AcDbEntity
  8
0
  6
Continuous
100
AcDbText
 10
9.219526112999998
 20
10.8415525129
 30
0.0
 40
0.390625
  1
)
 41
0.8
100
AcDbText
  0
TEXT
  5
4A6
330
1F
100
AcDbEntity
  8
0
  6
Continuous
100
AcDbText
 10
7.344526112999999
 20
10.8415525129
 30
0.0
 40
0.390625
  1
1.28
 41
0.8
100
AcDbText
  0
TEXT
  5
4A7
330
1F
100
AcDbEntity
  8
0
  6
Continuous
100
AcDbText
 10
7.657026112999999
 20
10.2556150129
 30
0.0
 40
0.390625
  1
32,5
 41
0.8
100
AcDbText
  0
TEXT
  5
4A8
330
1F
100
AcDbEntity
  8
0
  6
Continuous
100
AcDbText
 10
7.344526112999999
 20
10.2556150129
 30
0.0
 40
0.390625
  1
[
 41
0.8
100
AcDbText
  0
TEXT
  5
4A9
330
1F
100
AcDbEntity
  8
0
  6
Continuous
100
AcDbText
 10
8.907026112999998
 20
10.2556150129
 30
0.0
 40
0.390625
  1
]
 41
0.8
100
AcDbText
  0
LINE
  5
4AA
330
1F
100
AcDbEntity
  8
0
  6
Continuous
100
AcDbLine
 10
10.8507342838
 20
12.9527975723
 30
0.0
 11
10.8507342838
 21
10.7243650129
 31
0.0
  0
LINE
  5
4AB
330
1F
100
AcDbEntity
  8
0
  6
Continuous
100
AcDbLine
 10
12.13183664599999
 20
12.9527975723
 30
0.0
 11
12.13183664599999
 21
10.7243650129
 31
0.0
  0
LINE
  5
4AC
330
1F
100
AcDbEntity
  8
0
  6
Continuous
100
AcDbLine
 10
10.8507342838
 20
11.0368650129
 30
0.0
 11
9.727338612999998
 21
11.0368650129
 31
0.0
  0
LINE
  5
4AD
330
1F
100
AcDbEntity
  8
0
  6
Continuous
100
AcDbLine
 10
12.13183664599999
 20
11.0368650129
 30
0.0
 11
13.38183664599999
 21
11.0368650129
 31
0.0
  0
INSERT
  5
4AE
330
1F
100
AcDbEntity
  8
0
  6
Continuous
100
AcDbBlockReference
  2
_CLOSED
 10
10.8507342838
 20
11.0368650129
 30
0.0
 41
0.46875
 42
0.46875
 43
0.46875
  0
INSERT
  5
4AF
330
1F
100
AcDbEntity
  8
0
  6
Continuous
100
AcDbBlockReference
  2
_CLOSED
 10
12.13183664599999
 20
11.0368650129
 30
0.0
 41
0.46875
 42
0.46875
 43
0.46875
 50
180.0
  0
TEXT
  5
4B0
330
1F
100
AcDbEntity
  8
0
  6
Continuous
100
AcDbText
 10
5.9289020801
 20
14.1661306988
 30
0.0
 40
0.390625
  1
(
 41
0.8
100
AcDbText
  0
TEXT
  5
4B1
330
1F
100
AcDbEntity
  8
0
  6
Continuous
100
AcDbText
 10
7.8039020801
 20
14.1661306988
 30
0.0
 40
0.390625
  1
)
 41
0.8
100
AcDbText
  0
TEXT
  5
4B2
330
1F
100
AcDbEntity
  8
0
  6
Continuous
100
AcDbText
 10
6.2414020801
 20
14.1661306988
 30
0.0
 40
0.390625
  1
.28
 41
0.8
100
AcDbText
  0
TEXT
  5
4B3
330
1F
100
AcDbEntity
  8
0
  6
Continuous
100
AcDbText
 10
6.5539020801
 20
13.5801931988
 30
0.0
 40
0.390625
  1
7,1
 41
0.8
100
AcDbText
  0
TEXT
  5
4B4
330
1F
100
AcDbEntity
  8
0
  6
Continuous
100
AcDbText
 10
6.2414020801
 20
13.5801931988
 30
0.0
 40
0.390625
  1
[
 41
0.8
100
AcDbText
  0
TEXT
  5
4B5
330
1F
100
AcDbEntity
  8
0
  6
Continuous
100
AcDbText
 10
7.4914020801
 20
13.5801931988
 30
0.0
 40
0.390625
  1
]
 41
0.8
100
AcDbText
  0
LINE
  5
4B6
330
1F
100
AcDbEntity
  8
0
  6
Continuous
100
AcDbLine
 10
10.757133928
 20
13.2495987534
 30
0.0
 11
8.274242392499999
 21
13.2495987534
 31
0.0
  0
LINE
  5
4B7
330
1F
100
AcDbEntity
  8
0
  6
Continuous
100
AcDbLine
 10
10.7568425845
 20
12.96849639119999
 30
0.0
 11
8.274242392499999
 21
12.96849639119999
 31
0.0
  0
LINE
  5
4B8
330
1F
100
AcDbEntity
  8
0
  6
Continuous
100
AcDbLine
 10
8.586742392499999
 20
13.2495987534
 30
0.0
 11
8.586742392499999
 21
14.3614431988
 31
0.0
  0
LINE
  5
4B9
330
1F
100
AcDbEntity
  8
0
  6
Continuous
100
AcDbLine
 10
8.586742392499999
 20
14.3614431988
 30
0.0
 11
8.3117145801
 21
14.3614431988
 31
0.0
  0
LINE
  5
4BA
330
1F
100
AcDbEntity
  8
0
  6
Continuous
100
AcDbLine
 10
8.586742392499999
 20
12.96849639119999
 30
0.0
 11
8.586742392499999
 21
11.71849639119999
 31
0.0
  0
INSERT
  5
4BB
330
1F
100
AcDbEntity
  8
0
  6
Continuous
100
AcDbBlockReference
  2
_CLOSED
 10
8.586742392499999
 20
13.2495987534
 30
0.0
 41
0.46875
 42
0.46875
 43
0.46875
 50
270.0
  0
INSERT
  5
4BC
330
1F
100
AcDbEntity
  8
0
  6
Continuous
100
AcDbBlockReference
  2
_CLOSED
 10
8.586742392499999
 20
12.96849639119999
 30
0.0
 41
0.46875
 42
0.46875
 43
0.46875
 50
90.0
  0
TEXT
  5
4BD
330
1F
100
AcDbEntity
  8
0
  6
Continuous
100
AcDbText
 10
9.8702344561
 20
9.155330752299999
 30
0.0
 40
0.390625
  1
(%%c
 41
1.066666666699999
100
AcDbText
  0
TEXT
  5
4BE
330
1F
100
AcDbEntity
  8
0
  6
Continuous
100
AcDbText
 10
12.2660677894
 20
9.155330752299999
 30
0.0
 40
0.390625
  1
)
 41
0.8
100
AcDbText
  0
TEXT
  5
4BF
330
1F
100
AcDbEntity
  8
0
  6
Continuous
100
AcDbText
 10
10.7035677894
 20
9.155330752299999
 30
0.0
 40
0.390625
  1
.35
 41
0.8
100
AcDbText
  0
TEXT
  5
4C0
330
1F
100
AcDbEntity
  8
0
  6
Continuous
100
AcDbText
 10
11.0160677894
 20
8.569393252299999
 30
0.0
 40
0.390625
  1
8,9
 41
0.8
100
AcDbText
  0
TEXT
  5
4C1
330
1F
100
AcDbEntity
  8
0
  6
Continuous
100
AcDbText
 10
10.7035677894
 20
8.569393252299999
 30
0.0
 40
0.390625
  1
[
 41
0.8
100
AcDbText
  0
TEXT
  5
4C2
330
1F
100
AcDbEntity
  8
0
  6
Continuous
100
AcDbText
 10
11.9535677894
 20
8.569393252299999
 30
0.0
 40
0.390625
  1
]
 41
0.8
100
AcDbText
  0
LINE
  5
4C3
330
1F
100
AcDbEntity
  8
0
  6
Continuous
100
AcDbLine
 10
15.5732651666
 20
13.57448591819999
 30
0.0
 11
14.0388474063
 21
9.350643252299999
 31
0.0
  0
LINE
  5
4C4
330
1F
100
AcDbEntity
  8
0
  6
Continuous
100
AcDbLine
 10
14.0388474063
 20
9.350643252299999
 30
0.0
 11
12.7738802894
 21
9.350643252299999
 31
0.0
  0
INSERT
  5
4C5
330
1F
100
AcDbEntity
  8
0
  6
Continuous
100
AcDbBlockReference
  2
_CLOSED
 10
15.5732651666
 20
13.57448591819999
 30
0.0
 41
0.46875
 42
0.46875
 43
0.46875
 50
70.03516600000001
  0
TEXT
  5
4C6
330
1F
100
AcDbEntity
  8
0
  6
Continuous
100
AcDbText
 10
18.2944884742
 20
16.3291862927
 30
0.0
 40
0.390625
  1
(
 41
0.8
100
AcDbText
  0
TEXT
  5
4C7
330
1F
100
AcDbEntity
  8
0
  6
Continuous
100
AcDbText
 10
20.4819884742
 20
16.3291862927
 30
0.0
 40
0.390625
  1
)
 41
0.8
100
AcDbText
  0
TEXT
  5
4C8
330
1F
100
AcDbEntity
  8
0
  6
Continuous
100
AcDbText
 10
18.6069884742
 20
16.3291862927
 30
0.0
 40
0.390625
  1
1.25
 41
0.8
100
AcDbText
  0
TEXT
  5
4C9
330
1F
100
AcDbEntity
  8
0
  6
Continuous
100
AcDbText
 10
18.9194884742
 20
15.74324879269999
 30
0.0
 40
0.390625
  1
31,8
 41
0.8
100
AcDbText
  0
TEXT
  5
4CA
330
1F
100
AcDbEntity
  8
0
  6
Continuous
100
AcDbText
 10
18.6069884742
 20
15.74324879269999
 30
0.0
 40
0.390625
  1
[
 41
0.8
100
AcDbText
  0
TEXT
  5
4CB
330
1F
100
AcDbEntity
  8
0
  6
Continuous
100
AcDbText
 10
20.1694884742
 20
15.74324879269999
 30
0.0
 40
0.390625
  1
]
 41
0.8
100
AcDbText
  0
LINE
  5
4CC
330
1F
100
AcDbEntity
  8
0
  6
Continuous
100
AcDbLine
 10
15.6330177484
 20
15.7200219817
 30
0.0
 11
15.6330177484
 21
16.8369987927
 31
0.0
  0
LINE
  5
4CD
330
1F
100
AcDbEntity
  8
0
  6
Continuous
100
AcDbLine
 10
16.8830177484
 20
14.1452227691
 30
0.0
 11
16.8830177484
 21
16.8369987927
 31
0.0
  0
LINE
  5
4CE
330
1F
100
AcDbEntity
  8
0
  6
Continuous
100
AcDbLine
 10
15.6330177484
 20
16.5244987927
 30
0.0
 11
14.3830177484
 21
16.5244987927
 31
0.0
  0
LINE
  5
4CF
330
1F
100
AcDbEntity
  8
0
  6
Continuous
100
AcDbLine
 10
16.8830177484
 20
16.5244987927
 30
0.0
 11
18.0991759742
 21
16.5244987927
 31
0.0
  0
INSERT
  5
4D0
330
1F
100
AcDbEntity
  8
0
  6
Continuous
100
AcDbBlockReference
  2
_CLOSED
 10
15.6330177484
 20
16.5244987927
 30
0.0
 41
0.46875
 42
0.46875
 43
0.46875
  0
INSERT
  5
4D1
330
1F
100
AcDbEntity
  8
0
  6
Continuous
100
AcDbBlockReference
  2
_CLOSED
 10
16.8830177484
 20
16.5244987927
 30
0.0
 41
0.46875
 42
0.46875
 43
0.46875
 50
180.0
  0
TEXT
  5
4D2
330
1F
100
AcDbEntity
  8
0
  6
Continuous
100
AcDbText
 10
18.3664053528
 20
9.1341922619
 30
0.0
 40
0.390625
  1
(%%c
 41
1.066666666699999
100
AcDbText
  0
TEXT
  5
4D3
330
1F
100
AcDbEntity
  8
0
  6
Continuous
100
AcDbText
 10
20.7622386861
 20
9.1341922619
 30
0.0
 40
0.390625
  1
)
 41
0.8
100
AcDbText
  0
TEXT
  5
4D4
330
1F
100
AcDbEntity
  8
0
  6
Continuous
100
AcDbText
 10
19.19973868609999
 20
9.1341922619
 30
0.0
 40
0.390625
  1
.28
 41
0.8
100
AcDbText
  0
TEXT
  5
4D5
330
1F
100
AcDbEntity
  8
0
  6
Continuous
100
AcDbText
 10
19.51223868609999
 20
8.5482547619
 30
0.0
 40
0.390625
  1
7,1
 41
0.8
100
AcDbText
  0
TEXT
  5
4D6
330
1F
100
AcDbEntity
  8
0
  6
Continuous
100
AcDbText
 10
19.19973868609999
 20
8.5482547619
 30
0.0
 40
0.390625
  1
[
 41
0.8
100
AcDbText
  0
TEXT
  5
4D7
330
1F
100
AcDbEntity
  8
0
  6
Continuous
100
AcDbText
 10
20.4497386861
 20
8.5482547619
 30
0.0
 40
0.390625
  1
]
 41
0.8
100
AcDbText
  0
LINE
  5
4D8
330
1F
100
AcDbEntity
  8
0
  6
Continuous
100
AcDbLine
 10
16.9098746047
 20
13.601007447
 30
0.0
 11
17.7414053528
 21
9.3295047619
 31
0.0
  0
LINE
  5
4D9
330
1F
100
AcDbEntity
  8
0
  6
Continuous
100
AcDbLine
 10
17.7414053528
 20
9.3295047619
 30
0.0
 11
18.1710928528
 21
9.3295047619
 31
0.0
  0
INSERT
  5
4DA
330
1F
100
AcDbEntity
  8
0
  6
Continuous
100
AcDbBlockReference
  2
_CLOSED
 10
16.9098746047
 20
13.601007447
 30
0.0
 41
0.46875
 42
0.46875
 43
0.46875
 50
101.015958
  0
LINE
  5
4DB
330
1F
100
AcDbEntity
  8
0
  6
Continuous
100
AcDbLine
 10
15.57445816039999
 20
11.9320402527
 30
0.0
 11
15.57445816039999
 21
11.3539150238
 31
0.0
  0
LINE
  5
4DC
330
1F
100
AcDbEntity
  8
0
  6
Continuous
100
AcDbLine
 10
15.57445816039999
 20
11.3539150238
 30
0.0
 11
15.82445739749999
 21
11.3539150238
 31
0.0
  0
LINE
  5
4DD
330
1F
100
AcDbEntity
  8
0
  6
Continuous
100
AcDbLine
 10
15.6994569397
 20
11.7914149475
 30
0.0
 11
15.6057078552
 21
11.8226654816
 31
0.0
  0
LINE
  5
4DE
330
1F
100
AcDbEntity
  8
0
  6
Continuous
100
AcDbLine
 10
15.6057078552
 20
11.8226654816
 30
0.0
 11
15.51195709229999
 21
11.7914149475
 31
0.0
  0
LINE
  5
4DF
330
1F
100
AcDbEntity
  8
0
  6
Continuous
100
AcDbLine
 10
15.51195709229999
 20
11.7914149475
 30
0.0
 11
15.4494577026
 21
11.72891555789999
 31
0.0
  0
LINE
  5
4E0
330
1F
100
AcDbEntity
  8
0
  6
Continuous
100
AcDbLine
 10
15.4494577026
 20
11.72891555789999
 30
0.0
 11
15.4182080078
 21
11.6351656342
 31
0.0
  0
LINE
  5
4E1
330
1F
100
AcDbEntity
  8
0
  6
Continuous
100
AcDbLine
 10
15.4182080078
 20
11.6351656342
 30
0.0
 11
15.4494577026
 21
11.54141487119999
 31
0.0
  0
LINE
  5
4E2
330
1F
100
AcDbEntity
  8
0
  6
Continuous
100
AcDbLine
 10
15.4494577026
 20
11.54141487119999
 30
0.0
 11
15.51195709229999
 21
11.4789154816
 31
0.0
  0
LINE
  5
4E3
330
1F
100
AcDbEntity
  8
0
  6
Continuous
100
AcDbLine
 10
15.51195709229999
 20
11.4789154816
 30
0.0
 11
15.6057078552
 21
11.4476649475
 31
0.0
  0
LINE
  5
4E4
330
1F
100
AcDbEntity
  8
0
  6
Continuous
100
AcDbLine
 10
15.6057078552
 20
11.4476649475
 30
0.0
 11
15.6994569397
 21
11.4789154816
 31
0.0
  0
TEXT
  5
4E5
330
1F
100
AcDbEntity
  8
0
  6
Continuous
100
AcDbText
 10
24.2773965331
 20
11.29212022539999
 30
0.0
 40
0.390625
  1
(
 41
0.8
100
AcDbText
  0
TEXT
  5
4E6
330
1F
100
AcDbEntity
  8
0
  6
Continuous
100
AcDbText
 10
25.8398965331
 20
11.29212022539999
 30
0.0
 40
0.390625
  1
)
 41
0.8
100
AcDbText
  0
TEXT
  5
4E7
330
1F
100
AcDbEntity
  8
0
  6
Continuous
100
AcDbText
 10
24.5898965331
 20
11.29212022539999
 30
0.0
 40
0.390625
  1
.63
 41
0.8
100
AcDbText
  0
TEXT
  5
4E8
330
1F
100
AcDbEntity
  8
0
  6
Continuous
100
AcDbText
 10
24.9023965331
 20
10.70618272539999
 30
0.0
 40
0.390625
  1
16
 41
0.8
100
AcDbText
  0
TEXT
  5
4E9
330
1F
100
AcDbEntity
  8
0
  6
Continuous
100
AcDbText
 10
24.5898965331
 20
10.70618272539999
 30
0.0
 40
0.390625
  1
[
 41
0.8
100
AcDbText
  0
TEXT
  5
4EA
330
1F
100
AcDbEntity
  8
0
  6
Continuous
100
AcDbText
 10
25.5273965331
 20
10.70618272539999
 30
0.0
 40
0.390625
  1
]
 41
0.8
100
AcDbText
  0
LINE
  5
4EB
330
1F
100
AcDbEntity
  8
0
  6
Continuous
100
AcDbLine
 10
22.87014318949999
 20
13.7389688321
 30
0.0
 11
23.9648965331
 21
13.7389688321
 31
0.0
  0
LINE
  5
4EC
330
1F
100
AcDbEntity
  8
0
  6
Continuous
100
AcDbLine
 10
20.4310000319
 20
13.1090475723
 30
0.0
 11
23.9648965331
 21
13.1090475723
 31
0.0
  0
LINE
  5
4ED
330
1F
100
AcDbEntity
  8
0
  6
Continuous
100
AcDbLine
 10
23.6523965331
 20
13.7389688321
 30
0.0
 11
23.6523965331
 21
14.9889688321
 31
0.0
  0
LINE
  5
4EE
330
1F
100
AcDbEntity
  8
0
  6
Continuous
100
AcDbLine
 10
23.6523965331
 20
13.1090475723
 30
0.0
 11
23.6523965331
 21
11.48743272539999
 31
0.0
  0
LINE
  5
4EF
330
1F
100
AcDbEntity
  8
0
  6
Continuous
100
AcDbLine
 10
23.6523965331
 20
11.48743272539999
 30
0.0
 11
24.0820840331
 21
11.48743272539999
 31
0.0
  0
INSERT
  5
4F0
330
1F
100
AcDbEntity
  8
0
  6
Continuous
100
AcDbBlockReference
  2
_CLOSED
 10
23.6523965331
 20
13.7389688321
 30
0.0
 41
0.46875
 42
0.46875
 43
0.46875
 50
270.0
  0
INSERT
  5
4F1
330
1F
100
AcDbEntity
  8
0
  6
Continuous
100
AcDbBlockReference
  2
_CLOSED
 10
23.6523965331
 20
13.1090475723
 30
0.0
 41
0.46875
 42
0.46875
 43
0.46875
 50
90.0
  0
TEXT
  5
4F2
330
1F
100
AcDbEntity
  8
0
  6
Continuous
100
AcDbText
 10
25.2595361357
 20
15.9106074849
 30
0.0
 40
0.390625
  1
(
 41
0.8
100
AcDbText
  0
TEXT
  5
4F3
330
1F
100
AcDbEntity
  8
0
  6
Continuous
100
AcDbText
 10
26.8220361357
 20
15.9106074849
 30
0.0
 40
0.390625
  1
)
 41
0.8
100
AcDbText
  0
TEXT
  5
4F4
330
1F
100
AcDbEntity
  8
0
  6
Continuous
100
AcDbText
 10
25.5720361357
 20
15.9106074849
 30
0.0
 40
0.390625
  1
2.76
 41
0.8
100
AcDbText
  0
TEXT
  5
4F5
330
1F
100
AcDbEntity
  8
0
  6
Continuous
100
AcDbText
 10
25.8845361357
 20
15.3246699849
 30
0.0
 40
0.390625
  1
70
 41
0.8
100
AcDbText
  0
TEXT
  5
4F6
330
1F
100
AcDbEntity
  8
0
  6
Continuous
100
AcDbText
 10
25.5720361357
 20
15.3246699849
 30
0.0
 40
0.390625
  1
[
 41
0.8
100
AcDbText
  0
TEXT
  5
4F7
330
1F
100
AcDbEntity
  8
0
  6
Continuous
100
AcDbText
 10
26.5095361357
 20
15.3246699849
 30
0.0
 40
0.390625
  1
]
 41
0.8
100
AcDbText
  0
LINE
  5
4F8
330
1F
100
AcDbEntity
  8
0
  6
Continuous
100
AcDbLine
 10
22.0956947819
 20
15.116921588
 30
0.0
 11
24.9470361357
 21
15.116921588
 31
0.0
  0
LINE
  5
4F9
330
1F
100
AcDbEntity
  8
0
  6
Continuous
100
AcDbLine
 10
22.07606857659999
 20
12.36101607619999
 30
0.0
 11
24.9470361357
 21
12.36101607619999
 31
0.0
  0
LINE
  5
4FA
330
1F
100
AcDbEntity
  8
0
  6
Continuous
100
AcDbLine
 10
24.6345361357
 20
15.116921588
 30
0.0
 11
24.6345361357
 21
13.7389688321
 31
0.0
  0
LINE
  5
4FB
330
1F
100
AcDbEntity
  8
0
  6
Continuous
100
AcDbLine
 10
24.6345361357
 20
13.7389688321
 30
0.0
 11
24.6345361357
 21
16.1059199849
 31
0.0
  0
LINE
  5
4FC
330
1F
100
AcDbEntity
  8
0
  6
Continuous
100
AcDbLine
 10
24.6345361357
 20
16.1059199849
 30
0.0
 11
25.0642236357
 21
16.1059199849
 31
0.0
  0
LINE
  5
4FD
330
1F
100
AcDbEntity
  8
0
  6
Continuous
100
AcDbLine
 10
24.6345361357
 20
12.36101607619999
 30
0.0
 11
24.6345361357
 21
13.7389688321
 31
0.0
  0
INSERT
  5
4FE
330
1F
100
AcDbEntity
  8
0
  6
Continuous
100
AcDbBlockReference
  2
_CLOSED
 10
24.6345361357
 20
15.116921588
 30
0.0
 41
0.46875
 42
0.46875
 43
0.46875
 50
90.0
  0
INSERT
  5
4FF
330
1F
100
AcDbEntity
  8
0
  6
Continuous
100
AcDbBlockReference
  2
_CLOSED
 10
24.6345361357
 20
12.36101607619999
 30
0.0
 41
0.46875
 42
0.46875
 43
0.46875
 50
270.0
  0
LINE
  5
500
330
1F
100
AcDbEntity
  8
0
  6
Continuous
100
AcDbLine
 10
22.7074049377
 20
14.07069900509999
 30
0.0
 11
22.7074049377
 21
13.492572937
 31
0.0
  0
LINE
  5
501
330
1F
100
AcDbEntity
  8
0
  6
Continuous
100
AcDbLine
 10
22.7074049377
 20
13.492572937
 30
0.0
 11
22.95740585329999
 21
13.492572937
 31
0.0
  0
LINE
  5
502
330
1F
100
AcDbEntity
  8
0
  6
Continuous
100
AcDbLine
 10
22.83240539549999
 20
13.9300737
 30
0.0
 11
22.7386546326
 21
13.9613233948
 31
0.0
  0
LINE
  5
503
330
1F
100
AcDbEntity
  8
0
  6
Continuous
100
AcDbLine
 10
22.7386546326
 20
13.9613233948
 30
0.0
 11
22.6449055481
 21
13.9300737
 31
0.0
  0
LINE
  5
504
330
1F
100
AcDbEntity
  8
0
  6
Continuous
100
AcDbLine
 10
22.6449055481
 20
13.9300737
 30
0.0
 11
22.58240448
 21
13.8675743103
 31
0.0
  0
LINE
  5
505
330
1F
100
AcDbEntity
  8
0
  6
Continuous
100
AcDbLine
 10
22.58240448
 20
13.8675743103
 30
0.0
 11
22.5511547852
 21
13.77382354739999
 31
0.0
  0
LINE
  5
506
330
1F
100
AcDbEntity
  8
0
  6
Continuous
100
AcDbLine
 10
22.5511547852
 20
13.77382354739999
 30
0.0
 11
22.58240448
 21
13.6800727844
 31
0.0
  0
LINE
  5
507
330
1F
100
AcDbEntity
  8
0
  6
Continuous
100
AcDbLine
 10
22.58240448
 20
13.6800727844
 30
0.0
 11
22.6449055481
 21
13.6175733948
 31
0.0
  0
LINE
  5
508
330
1F
100
AcDbEntity
  8
0
  6
Continuous
100
AcDbLine
 10
22.6449055481
 20
13.6175733948
 30
0.0
 11
22.7386546326
 21
13.5863237
 31
0.0
  0
LINE
  5
509
330
1F
100
AcDbEntity
  8
0
  6
Continuous
100
AcDbLine
 10
22.7386546326
 20
13.5863237
 30
0.0
 11
22.83240539549999
 21
13.6175733948
 31
0.0
  0
TEXT
  5
50A
330
1F
100
AcDbEntity
  8
0
  6
Continuous
100
AcDbText
 10
14.03388731089999
 20
39.045244635
 30
0.0
 40
0.390625
  1
(
 41
0.8
100
AcDbText
  0
TEXT
  5
50B
330
1F
100
AcDbEntity
  8
0
  6
Continuous
100
AcDbText
 10
16.53388731089999
 20
39.045244635
 30
0.0
 40
0.390625
  1
)
 41
0.8
100
AcDbText
  0
TEXT
  5
50C
330
1F
100
AcDbEntity
  8
0
  6
Continuous
100
AcDbText
 10
14.34638731089999
 20
39.045244635
 30
0.0
 40
0.390625
  1
12.60
 41
0.8
100
AcDbText
  0
TEXT
  5
50D
330
1F
100
AcDbEntity
  8
0
  6
Continuous
100
AcDbText
 10
14.65888731089999
 20
38.459307135
 30
0.0
 40
0.390625
  1
320,2
 41
0.8
100
AcDbText
  0
TEXT
  5
50E
330
1F
100
AcDbEntity
  8
0
  6
Continuous
100
AcDbText
 10
14.34638731089999
 20
38.459307135
 30
0.0
 40
0.390625
  1
[
 41
0.8
100
AcDbText
  0
TEXT
  5
50F
330
1F
100
AcDbEntity
  8
0
  6
Continuous
100
AcDbText
 10
16.22138731089999
 20
38.459307135
 30
0.0
 40
0.390625
  1
]
 41
0.8
100
AcDbText
  0
LINE
  5
510
330
1F
100
AcDbEntity
  8
0
  6
Continuous
100
AcDbLine
 10
9.3306555437
 20
37.126552924
 30
0.0
 11
9.3306555437
 21
39.553057135
 31
0.0
  0
LINE
  5
511
330
1F
100
AcDbEntity
  8
0
  6
Continuous
100
AcDbLine
 10
21.9353799578
 20
37.126552924
 30
0.0
 11
21.9353799578
 21
39.553057135
 31
0.0
  0
LINE
  5
512
330
1F
100
AcDbEntity
  8
0
  6
Continuous
100
AcDbLine
 10
9.3306555437
 20
39.240557135
 30
0.0
 11
13.83857481089999
 21
39.240557135
 31
0.0
  0
LINE
  5
513
330
1F
100
AcDbEntity
  8
0
  6
Continuous
100
AcDbLine
 10
21.9353799578
 20
39.240557135
 30
0.0
 11
17.04169981089999
 21
39.240557135
 31
0.0
  0
INSERT
  5
514
330
1F
100
AcDbEntity
  8
0
  6
Continuous
100
AcDbBlockReference
  2
_CLOSED
 10
9.3306555437
 20
39.240557135
 30
0.0
 41
0.46875
 42
0.46875
 43
0.46875
 50
180.0
  0
INSERT
  5
515
330
1F
100
AcDbEntity
  8
0
  6
Continuous
100
AcDbBlockReference
  2
_CLOSED
 10
21.9353799578
 20
39.240557135
 30
0.0
 41
0.46875
 42
0.46875
 43
0.46875
  0
TEXT
  5
516
330
1F
100
AcDbEntity
  8
0
  6
Continuous
100
AcDbText
 10
14.2753423139
 20
25.458060845
 30
0.0
 40
0.390625
  1
(
 41
0.8
100
AcDbText
  0
TEXT
  5
517
330
1F
100
AcDbEntity
  8
0
  6
Continuous
100
AcDbText
 10
16.7753423139
 20
25.458060845
 30
0.0
 40
0.390625
  1
)
 41
0.8
100
AcDbText
  0
TEXT
  5
518
330
1F
100
AcDbEntity
  8
0
  6
Continuous
100
AcDbText
 10
14.5878423139
 20
25.458060845
 30
0.0
 40
0.390625
  1
12.20
 41
0.8
100
AcDbText
  0
TEXT
  5
519
330
1F
100
AcDbEntity
  8
0
  6
Continuous
100
AcDbText
 10
14.9003423139
 20
24.872123345
 30
0.0
 40
0.390625
  1
309,8
 41
0.8
100
AcDbText
  0
TEXT
  5
51A
330
1F
100
AcDbEntity
  8
0
  6
Continuous
100
AcDbText
 10
14.5878423139
 20
24.872123345
 30
0.0
 40
0.390625
  1
[
 41
0.8
100
AcDbText
  0
TEXT
  5
51B
330
1F
100
AcDbEntity
  8
0
  6
Continuous
100
AcDbText
 10
16.4628423139
 20
24.872123345
 30
0.0
 40
0.390625
  1
]
 41
0.8
100
AcDbText
  0
LINE
  5
51C
330
1F
100
AcDbEntity
  8
0
  6
Continuous
100
AcDbLine
 10
9.535379953099999
 20
27.2397528939
 30
0.0
 11
9.535379953099999
 21
25.340873345
 31
0.0
  0
LINE
  5
51D
330
1F
100
AcDbEntity
  8
0
  6
Continuous
100
AcDbLine
 10
21.73065554369999
 20
27.5767330451
 30
0.0
 11
21.73065554369999
 21
25.340873345
 31
0.0
  0
LINE
  5
51E
330
1F
100
AcDbEntity
  8
0
  6
Continuous
100
AcDbLine
 10
9.535379953099999
 20
25.653373345
 30
0.0
 11
14.0800298139
 21
25.653373345
 31
0.0
  0
LINE
  5
51F
330
1F
100
AcDbEntity
  8
0
  6
Continuous
100
AcDbLine
 10
21.73065554369999
 20
25.653373345
 30
0.0
 11
17.2831548139
 21
25.653373345
 31
0.0
  0
INSERT
  5
520
330
1F
100
AcDbEntity
  8
0
  6
Continuous
100
AcDbBlockReference
  2
_CLOSED
 10
9.535379953099999
 20
25.653373345
 30
0.0
 41
0.46875
 42
0.46875
 43
0.46875
 50
180.0
  0
INSERT
  5
521
330
1F
100
AcDbEntity
  8
0
  6
Continuous
100
AcDbBlockReference
  2
_CLOSED
 10
21.73065554369999
 20
25.653373345
 30
0.0
 41
0.46875
 42
0.46875
 43
0.46875
  0
TEXT
  5
522
330
1F
100
AcDbEntity
  8
0
  6
Continuous
100
AcDbText
 10
37.08527928969999
 20
16.3669849105
 30
0.0
 40
0.390625
  1
(
 41
0.8
100
AcDbText
  0
TEXT
  5
523
330
1F
100
AcDbEntity
  8
0
  6
Continuous
100
AcDbText
 10
39.27277928969999
 20
16.3669849105
 30
0.0
 40
0.390625
  1
)
 41
0.8
100
AcDbText
  0
TEXT
  5
524
330
1F
100
AcDbEntity
  8
0
  6
Continuous
100
AcDbText
 10
37.39777928969999
 20
16.3669849105
 30
0.0
 40
0.390625
  1
1.50
 41
0.8
100
AcDbText
  0
TEXT
  5
525
330
1F
100
AcDbEntity
  8
0
  6
Continuous
100
AcDbText
 10
37.71027928969999
 20
15.78104741049999
 30
0.0
 40
0.390625
  1
38,1
 41
0.8
100
AcDbText
  0
TEXT
  5
526
330
1F
100
AcDbEntity
  8
0
  6
Continuous
100
AcDbText
 10
37.39777928969999
 20
15.78104741049999
 30
0.0
 40
0.390625
  1
[
 41
0.8
100
AcDbText
  0
TEXT
  5
527
330
1F
100
AcDbEntity
  8
0
  6
Continuous
100
AcDbText
 10
38.96027928969999
 20
15.78104741049999
 30
0.0
 40
0.390625
  1
]
 41
0.8
100
AcDbText
  0
LINE
  5
528
330
1F
100
AcDbEntity
  8
0
  6
Continuous
100
AcDbLine
 10
34.9572527532
 20
14.1452227691
 30
0.0
 11
34.9572527532
 21
16.8747974105
 31
0.0
  0
LINE
  5
529
330
1F
100
AcDbEntity
  8
0
  6
Continuous
100
AcDbLine
 10
36.4572527532
 20
14.1452227691
 30
0.0
 11
36.4572527532
 21
16.8747974105
 31
0.0
  0
LINE
  5
52A
330
1F
100
AcDbEntity
  8
0
  6
Continuous
100
AcDbLine
 10
34.9572527532
 20
16.5622974105
 30
0.0
 11
35.7072527532
 21
16.5622974105
 31
0.0
  0
LINE
  5
52B
330
1F
100
AcDbEntity
  8
0
  6
Continuous
100
AcDbLine
 10
36.4572527532
 20
16.5622974105
 30
0.0
 11
35.7072527532
 21
16.5622974105
 31
0.0
  0
LINE
  5
52C
330
1F
100
AcDbEntity
  8
0
  6
Continuous
100
AcDbLine
 10
35.7072527532
 20
16.5622974105
 30
0.0
 11
36.88996678969999
 21
16.5622974105
 31
0.0
  0
INSERT
  5
52D
330
1F
100
AcDbEntity
  8
0
  6
Continuous
100
AcDbBlockReference
  2
_CLOSED
 10
34.9572527532
 20
16.5622974105
 30
0.0
 41
0.46875
 42
0.46875
 43
0.46875
 50
180.0
  0
INSERT
  5
52E
330
1F
100
AcDbEntity
  8
0
  6
Continuous
100
AcDbBlockReference
  2
_CLOSED
 10
36.4572527532
 20
16.5622974105
 30
0.0
 41
0.46875
 42
0.46875
 43
0.46875
  0
TEXT
  5
52F
330
1F
100
AcDbEntity
  8
0
  6
Continuous
100
AcDbText
 10
36.1103087946
 20
11.15417781369999
 30
0.0
 40
0.390625
  1
(%%c
 41
1.066666666699999
100
AcDbText
  0
TEXT
  5
530
330
1F
100
AcDbEntity
  8
0
  6
Continuous
100
AcDbText
 10
38.506142128
 20
11.15417781369999
 30
0.0
 40
0.390625
  1
)
 41
0.8
100
AcDbText
  0
TEXT
  5
531
330
1F
100
AcDbEntity
  8
0
  6
Continuous
100
AcDbText
 10
36.943642128
 20
11.15417781369999
 30
0.0
 40
0.390625
  1
.39
 41
0.8
100
AcDbText
  0
TEXT
  5
532
330
1F
100
AcDbEntity
  8
0
  6
Continuous
100
AcDbText
 10
37.256142128
 20
10.5682403137
 30
0.0
 40
0.390625
  1
9,8
 41
0.8
100
AcDbText
  0
TEXT
  5
533
330
1F
100
AcDbEntity
  8
0
  6
Continuous
100
AcDbText
 10
36.943642128
 20
10.5682403137
 30
0.0
 40
0.390625
  1
[
 41
0.8
100
AcDbText
  0
TEXT
  5
534
330
1F
100
AcDbEntity
  8
0
  6
Continuous
100
AcDbText
 10
38.193642128
 20
10.5682403137
 30
0.0
 40
0.390625
  1
]
 41
0.8
100
AcDbText
  0
LINE
  5
535
330
1F
100
AcDbEntity
  8
0
  6
Continuous
100
AcDbLine
 10
34.998880714
 20
13.550600344
 30
0.0
 11
35.4853087946
 21
11.34949031369999
 31
0.0
  0
LINE
  5
536
330
1F
100
AcDbEntity
  8
0
  6
Continuous
100
AcDbLine
 10
35.4853087946
 20
11.34949031369999
 30
0.0
 11
35.9149962946
 21
11.34949031369999
 31
0.0
  0
INSERT
  5
537
330
1F
100
AcDbEntity
  8
0
  6
Continuous
100
AcDbBlockReference
  2
_CLOSED
 10
34.998880714
 20
13.550600344
 30
0.0
 41
0.4687500000000001
 42
0.46875
 43
0.46875
 50
102.4616299999999
  0
TEXT
  5
538
330
1F
100
AcDbEntity
  8
0
  6
Continuous
100
AcDbText
 10
38.0531790566
 20
20.1695391971
 30
0.0
 40
0.390625
  1
(
 41
0.8
100
AcDbText
  0
TEXT
  5
539
330
1F
100
AcDbEntity
  8
0
  6
Continuous
100
AcDbText
 10
40.55317905659999
 20
20.1695391971
 30
0.0
 40
0.390625
  1
)
 41
0.8
100
AcDbText
  0
TEXT
  5
53A
330
1F
100
AcDbEntity
  8
0
  6
Continuous
100
AcDbText
 10
38.3656790566
 20
20.1695391971
 30
0.0
 40
0.390625
  1
10.10
 41
0.8
100
AcDbText
  0
TEXT
  5
53B
330
1F
100
AcDbEntity
  8
0
  6
Continuous
100
AcDbText
 10
38.6781790566
 20
19.5836016971
 30
0.0
 40
0.390625
  1
256,5
 41
0.8
100
AcDbText
  0
TEXT
  5
53C
330
1F
100
AcDbEntity
  8
0
  6
Continuous
100
AcDbText
 10
38.3656790566
 20
19.5836016971
 30
0.0
 40
0.390625
  1
[
 41
0.8
100
AcDbText
  0
TEXT
  5
53D
330
1F
100
AcDbEntity
  8
0
  6
Continuous
100
AcDbText
 10
40.24067905659999
 20
19.5836016971
 30
0.0
 40
0.390625
  1
]
 41
0.8
100
AcDbText
  0
LINE
  5
53E
330
1F
100
AcDbEntity
  8
0
  6
Continuous
100
AcDbLine
 10
34.1107960603
 20
14.68262040769999
 30
0.0
 11
34.1107960603
 21
20.6773516971
 31
0.0
  0
LINE
  5
53F
330
1F
100
AcDbEntity
  8
0
  6
Continuous
100
AcDbLine
 10
44.20922125709999
 20
15.273171588
 30
0.0
 11
44.20922125709999
 21
20.6773516971
 31
0.0
  0
LINE
  5
540
330
1F
100
AcDbEntity
  8
0
  6
Continuous
100
AcDbLine
 10
34.1107960603
 20
20.3648516971
 30
0.0
 11
37.8578665566
 21
20.3648516971
 31
0.0
  0
LINE
  5
541
330
1F
100
AcDbEntity
  8
0
  6
Continuous
100
AcDbLine
 10
44.20922125709999
 20
20.3648516971
 30
0.0
 11
41.06099155659999
 21
20.3648516971
 31
0.0
  0
INSERT
  5
542
330
1F
100
AcDbEntity
  8
0
  6
Continuous
100
AcDbBlockReference
  2
_CLOSED
 10
34.1107960603
 20
20.3648516971
 30
0.0
 41
0.46875
 42
0.46875
 43
0.46875
 50
180.0
  0
INSERT
  5
543
330
1F
100
AcDbEntity
  8
0
  6
Continuous
100
AcDbBlockReference
  2
_CLOSED
 10
44.20922125709999
 20
20.3648516971
 30
0.0
 41
0.46875
 42
0.46875
 43
0.46875
  0
TEXT
  5
544
330
1F
100
AcDbEntity
  8
0
  6
Continuous
100
AcDbText
 10
38.92268183249999
 20
18.1323795655
 30
0.0
 40
0.390625
  1
(
 41
0.8
100
AcDbText
  0
TEXT
  5
545
330
1F
100
AcDbEntity
  8
0
  6
Continuous
100
AcDbText
 10
41.42268183249999
 20
18.1323795655
 30
0.0
 40
0.390625
  1
)
 41
0.8
100
AcDbText
  0
TEXT
  5
546
330
1F
100
AcDbEntity
  8
0
  6
Continuous
100
AcDbText
 10
39.23518183249999
 20
18.1323795655
 30
0.0
 40
0.390625
  1
7.75
 41
0.8
100
AcDbText
  0
TEXT
  5
547
330
1F
100
AcDbEntity
  8
0
  6
Continuous
100
AcDbText
 10
39.54768183249999
 20
17.5464420655
 30
0.0
 40
0.390625
  1
196,9
 41
0.8
100
AcDbText
  0
TEXT
  5
548
330
1F
100
AcDbEntity
  8
0
  6
Continuous
100
AcDbText
 10
39.23518183249999
 20
17.5464420655
 30
0.0
 40
0.390625
  1
[
 41
0.8
100
AcDbText
  0
TEXT
  5
549
330
1F
100
AcDbEntity
  8
0
  6
Continuous
100
AcDbText
 10
41.11018183249999
 20
17.5464420655
 30
0.0
 40
0.390625
  1
]
 41
0.8
100
AcDbText
  0
LINE
  5
54A
330
1F
100
AcDbEntity
  8
0
  6
Continuous
100
AcDbLine
 10
36.4572527532
 20
14.1452227691
 30
0.0
 11
36.4572527532
 21
18.6401920655
 31
0.0
  0
LINE
  5
54B
330
1F
100
AcDbEntity
  8
0
  6
Continuous
100
AcDbLine
 10
44.20922125709999
 20
15.273171588
 30
0.0
 11
44.20922125709999
 21
18.6401920655
 31
0.0
  0
LINE
  5
54C
330
1F
100
AcDbEntity
  8
0
  6
Continuous
100
AcDbLine
 10
36.4572527532
 20
18.3276920655
 30
0.0
 11
38.72736933249999
 21
18.3276920655
 31
0.0
  0
LINE
  5
54D
330
1F
100
AcDbEntity
  8
0
  6
Continuous
100
AcDbLine
 10
44.20922125709999
 20
18.3276920655
 30
0.0
 11
41.93049433249999
 21
18.3276920655
 31
0.0
  0
INSERT
  5
54E
330
1F
100
AcDbEntity
  8
0
  6
Continuous
100
AcDbBlockReference
  2
_CLOSED
 10
36.4572527532
 20
18.3276920655
 30
0.0
 41
0.46875
 42
0.46875
 43
0.46875
 50
180.0
  0
INSERT
  5
54F
330
1F
100
AcDbEntity
  8
0
  6
Continuous
100
AcDbBlockReference
  2
_CLOSED
 10
44.20922125709999
 20
18.3276920655
 30
0.0
 41
0.46875
 42
0.46875
 43
0.46875
  0
ENDSEC
  0
SECTION
  2
OBJECTS
  0
DICTIONARY
  5
C
330
0
100
AcDbDictionary
281
     1
  3
ACAD_GROUP
350
D
  3
ACAD_LAYOUT
350
1A
  3
ACAD_MLINESTYLE
350
17
  3
ACAD_PLOTSETTINGS
350
19
  3
ACAD_PLOTSTYLENAME
350
E
  3
AcDbVariableDictionary
350
550
  0
DICTIONARY
  5
D
102
{ACAD_REACTORS
330
C
102
}
330
C
100
AcDbDictionary
281
     1
  0
DICTIONARY
  5
1A
102
{ACAD_REACTORS
330
C
102
}
330
C
100
AcDbDictionary
281
     1
  3
Layout1
350
1E
  3
Model
350
22
  0
DICTIONARY
  5
17
102
{ACAD_REACTORS
330
C
102
}
330
C
100
AcDbDictionary
281
     1
  3
Standard
350
18
  0
DICTIONARY
  5
19
102
{ACAD_REACTORS
330
C
102
}
330
C
100
AcDbDictionary
281
     1
  0
ACDBDICTIONARYWDFLT
  5
E
102
{ACAD_REACTORS
330
C
102
}
330
C
100
AcDbDictionary
281
     1
  3
Normal
350
F
100
AcDbDictionaryWithDefault
340
F
  0
DICTIONARY
  5
550
102
{ACAD_REACTORS
330
C
102
}
330
C
100
AcDbDictionary
281
     1
  3
DIMASSOC
350
551
  0
LAYOUT
  5
1E
102
{ACAD_REACTORS
330
1A
102
}
330
1A
100
AcDbPlotSettings
  1

  2

  4

  6

 40
0.0
 41
0.0
 42
0.0
 43
0.0
 44
0.0
 45
0.0
 46
0.0
 47
0.0
 48
0.0
 49
0.0
140
0.0
141
0.0
142
1.0
143
1.0
 70
     0
 72
     0
 73
     0
 74
     0
  7

 75
     0
147
1.0
148
0.0
149
0.0
100
AcDbLayout
  1
Layout1
 70
     1
 71
     1
 10
0.0
 20
0.0
 11
12.0
 21
9.0
 12
0.0
 22
0.0
 32
0.0
 14
1.000000000000000E+20
 24
1.000000000000000E+20
 34
1.000000000000000E+20
 15
-1.000000000000000E+20
 25
-1.000000000000000E+20
 35
-1.000000000000000E+20
146
0.0
 13
0.0
 23
0.0
 33
0.0
 16
1.0
 26
0.0
 36
0.0
 17
0.0
 27
1.0
 37
0.0
 76
     0
330
1B
  0
LAYOUT
  5
22
102
{ACAD_REACTORS
330
1A
102
}
330
1A
100
AcDbPlotSettings
  1

  2

  4

  6

 40
0.0
 41
0.0
 42
0.0
 43
0.0
 44
0.0
 45
0.0
 46
0.0
 47
0.0
 48
0.0
 49
0.0
140
0.0
141
0.0
142
1.0
143
1.0
 70
     0
 72
     0
 73
     0
 74
     0
  7

 75
     0
147
1.0
148
0.0
149
0.0
100
AcDbLayout
  1
Model
 70
     0
 71
     0
 10
0.0
 20
0.0
 11
0.0
 21
0.0
 12
0.0
 22
0.0
 32
0.0
 14
0.0
 24
0.0
 34
0.0
 15
0.0
 25
0.0
 35
0.0
146
0.0
 13
0.0
 23
0.0
 33
0.0
 16
0.0
 26
0.0
 36
0.0
 17
0.0
 27
0.0
 37
0.0
 76
     0
330
1F
  0
MLINESTYLE
  5
18
102
{ACAD_REACTORS
330
17
102
}
330
17
100
AcDbMlineStyle
  2
STANDARD
 70
     0
  3

 62
   256
 51
90.0
 52
90.0
 71
     2
 49
0.5
 62
   256
  6
BYLAYER
 49
-0.5
 62
   256
  6
BYLAYER
  0
ACDBPLACEHOLDER
  5
F
102
{ACAD_REACTORS
330
E
102
}
330
E
  0
DICTIONARYVAR
  5
551
102
{ACAD_REACTORS
330
550
102
}
330
550
100
DictionaryVariables
280
     0
  1
1
  0
ENDSEC
  0
EOF
