  0
SECTION
  2
HEADER
  9
$ACADVER
  1
AC1024
  9
$ACADMAINTVER
 70
    63
  9
$DWGCODEPAGE
  3
ANSI_1252
  9
$LASTSAVEDBY
  1
Rob.Pingle
  9
$INSBASE
 10
0.0
 20
0.0
 30
0.0
  9
$EXTMIN
 10
-4.93897623940569
 20
0.0
 30
-22.5984251126647
  9
$EXTMAX
 10
4.93897623940569
 20
15.51181096583605
 30
1.141732279211282
  9
$LIMMIN
 10
0.0
 20
0.0
  9
$LIMMAX
 10
12.0
 20
9.0
  9
$ORTHOMODE
 70
     0
  9
$REGENMODE
 70
     1
  9
$FILLMODE
 70
     1
  9
$QTEXTMODE
 70
     0
  9
$MIRRTEXT
 70
     1
  9
$LTSCALE
 40
1.0
  9
$ATTMODE
 70
     1
  9
$TEXTSIZE
 40
0.2
  9
$TRACEWID
 40
0.05
  9
$TEXTSTYLE
  7
Standard
  9
$CLAYER
  8
0
  9
$CELTYPE
  6
ByLayer
  9
$CECOLOR
 62
   256
  9
$CELTSCALE
 40
1.0
  9
$DISPSILH
 70
     0
  9
$DIMSCALE
 40
1.0
  9
$DIMASZ
 40
0.18
  9
$DIMEXO
 40
0.0625
  9
$DIMDLI
 40
0.38
  9
$DIMRND
 40
0.0
  9
$DIMDLE
 40
0.0
  9
$DIMEXE
 40
0.18
  9
$DIMTP
 40
0.0
  9
$DIMTM
 40
0.0
  9
$DIMTXT
 40
0.18
  9
$DIMCEN
 40
0.09
  9
$DIMTSZ
 40
0.0
  9
$DIMTOL
 70
     0
  9
$DIMLIM
 70
     0
  9
$DIMTIH
 70
     1
  9
$DIMTOH
 70
     1
  9
$DIMSE1
 70
     0
  9
$DIMSE2
 70
     0
  9
$DIMTAD
 70
     0
  9
$DIMZIN
 70
     0
  9
$DIMBLK
  1

  9
$DIMASO
 70
     1
  9
$DIMSHO
 70
     1
  9
$DIMPOST
  1

  9
$DIMAPOST
  1

  9
$DIMALT
 70
     0
  9
$DIMALTD
 70
     2
  9
$DIMALTF
 40
25.4
  9
$DIMLFAC
 40
1.0
  9
$DIMTOFL
 70
     0
  9
$DIMTVP
 40
0.0
  9
$DIMTIX
 70
     0
  9
$DIMSOXD
 70
     0
  9
$DIMSAH
 70
     0
  9
$DIMBLK1
  1

  9
$DIMBLK2
  1

  9
$DIMSTYLE
  2
Standard
  9
$DIMCLRD
 70
     0
  9
$DIMCLRE
 70
     0
  9
$DIMCLRT
 70
     0
  9
$DIMTFAC
 40
1.0
  9
$DIMGAP
 40
0.09
  9
$DIMJUST
 70
     0
  9
$DIMSD1
 70
     0
  9
$DIMSD2
 70
     0
  9
$DIMTOLJ
 70
     1
  9
$DIMTZIN
 70
     0
  9
$DIMALTZ
 70
     0
  9
$DIMALTTZ
 70
     0
  9
$DIMUPT
 70
     0
  9
$DIMDEC
 70
     4
  9
$DIMTDEC
 70
     4
  9
$DIMALTU
 70
     2
  9
$DIMALTTD
 70
     2
  9
$DIMTXSTY
  7
Standard
  9
$DIMAUNIT
 70
     0
  9
$DIMADEC
 70
     0
  9
$DIMALTRND
 40
0.0
  9
$DIMAZIN
 70
     0
  9
$DIMDSEP
 70
    46
  9
$DIMATFIT
 70
     3
  9
$DIMFRAC
 70
     0
  9
$DIMLDRBLK
  1

  9
$DIMLUNIT
 70
     2
  9
$DIMLWD
 70
    -2
  9
$DIMLWE
 70
    -2
  9
$DIMTMOVE
 70
     0
  9
$DIMFXL
 40
1.0
  9
$DIMFXLON
 70
     0
  9
$DIMJOGANG
 40
0.7853981633974483
  9
$DIMTFILL
 70
     0
  9
$DIMTFILLCLR
 70
     0
  9
$DIMARCSYM
 70
     0
  9
$DIMLTYPE
  6

  9
$DIMLTEX1
  6

  9
$DIMLTEX2
  6

  9
$DIMTXTDIRECTION
 70
     0
  9
$LUNITS
 70
     2
  9
$LUPREC
 70
     4
  9
$SKETCHINC
 40
0.1
  9
$FILLETRAD
 40
0.5
  9
$AUNITS
 70
     0
  9
$AUPREC
 70
     0
  9
$MENU
  1
.
  9
$ELEVATION
 40
0.0
  9
$PELEVATION
 40
0.0
  9
$THICKNESS
 40
0.0
  9
$LIMCHECK
 70
     0
  9
$CHAMFERA
 40
0.5
  9
$CHAMFERB
 40
0.5
  9
$CHAMFERC
 40
1.0
  9
$CHAMFERD
 40
0.0
  9
$SKPOLY
 70
     0
  9
$TDCREATE
 40
2455630.384520220
  9
$TDUCREATE
 40
2455630.676186887
  9
$TDUPDATE
 40
2456057.405765474
  9
$TDUUPDATE
 40
2456057.697432142
  9
$TDINDWG
 40
0.0124119560
  9
$TDUSRTIMER
 40
0.0124119560
  9
$USRTIMER
 70
     1
  9
$ANGBASE
 50
0.0
  9
$ANGDIR
 70
     0
  9
$PDMODE
 70
     0
  9
$PDSIZE
 40
0.0
  9
$PLINEWID
 40
0.0
  9
$SPLFRAME
 70
     0
  9
$SPLINETYPE
 70
     6
  9
$SPLINESEGS
 70
     8
  9
$HANDSEED
  5
52A
  9
$SURFTAB1
 70
     6
  9
$SURFTAB2
 70
     6
  9
$SURFTYPE
 70
     6
  9
$SURFU
 70
     6
  9
$SURFV
 70
     6
  9
$UCSBASE
  2

  9
$UCSNAME
  2

  9
$UCSORG
 10
0.0
 20
0.0
 30
0.0
  9
$UCSXDIR
 10
1.0
 20
0.0
 30
0.0
  9
$UCSYDIR
 10
0.0
 20
1.0
 30
0.0
  9
$UCSORTHOREF
  2

  9
$UCSORTHOVIEW
 70
     0
  9
$UCSORGTOP
 10
0.0
 20
0.0
 30
0.0
  9
$UCSORGBOTTOM
 10
0.0
 20
0.0
 30
0.0
  9
$UCSORGLEFT
 10
0.0
 20
0.0
 30
0.0
  9
$UCSORGRIGHT
 10
0.0
 20
0.0
 30
0.0
  9
$UCSORGFRONT
 10
0.0
 20
0.0
 30
0.0
  9
$UCSORGBACK
 10
0.0
 20
0.0
 30
0.0
  9
$PUCSBASE
  2

  9
$PUCSNAME
  2

  9
$PUCSORG
 10
0.0
 20
0.0
 30
0.0
  9
$PUCSXDIR
 10
1.0
 20
0.0
 30
0.0
  9
$PUCSYDIR
 10
0.0
 20
1.0
 30
0.0
  9
$PUCSORTHOREF
  2

  9
$PUCSORTHOVIEW
 70
     0
  9
$PUCSORGTOP
 10
0.0
 20
0.0
 30
0.0
  9
$PUCSORGBOTTOM
 10
0.0
 20
0.0
 30
0.0
  9
$PUCSORGLEFT
 10
0.0
 20
0.0
 30
0.0
  9
$PUCSORGRIGHT
 10
0.0
 20
0.0
 30
0.0
  9
$PUCSORGFRONT
 10
0.0
 20
0.0
 30
0.0
  9
$PUCSORGBACK
 10
0.0
 20
0.0
 30
0.0
  9
$USERI1
 70
     0
  9
$USERI2
 70
     0
  9
$USERI3
 70
     0
  9
$USERI4
 70
     0
  9
$USERI5
 70
     0
  9
$USERR1
 40
0.0
  9
$USERR2
 40
0.0
  9
$USERR3
 40
0.0
  9
$USERR4
 40
0.0
  9
$USERR5
 40
0.0
  9
$WORLDVIEW
 70
     1
  9
$SHADEDGE
 70
     3
  9
$SHADEDIF
 70
    70
  9
$TILEMODE
 70
     1
  9
$MAXACTVP
 70
    64
  9
$PINSBASE
 10
0.0
 20
0.0
 30
0.0
  9
$PLIMCHECK
 70
     0
  9
$PEXTMIN
 10
1.000000000000000E+20
 20
1.000000000000000E+20
 30
1.000000000000000E+20
  9
$PEXTMAX
 10
-1.000000000000000E+20
 20
-1.000000000000000E+20
 30
-1.000000000000000E+20
  9
$PLIMMIN
 10
0.0
 20
0.0
  9
$PLIMMAX
 10
12.0
 20
9.0
  9
$UNITMODE
 70
     0
  9
$VISRETAIN
 70
     1
  9
$PLINEGEN
 70
     0
  9
$PSLTSCALE
 70
     1
  9
$TREEDEPTH
 70
  3020
  9
$CMLSTYLE
  2
Standard
  9
$CMLJUST
 70
     0
  9
$CMLSCALE
 40
1.0
  9
$PROXYGRAPHICS
 70
     1
  9
$MEASUREMENT
 70
     0
  9
$CELWEIGHT
370
    -1
  9
$ENDCAPS
280
     0
  9
$JOINSTYLE
280
     0
  9
$LWDISPLAY
290
     0
  9
$INSUNITS
 70
     1
  9
$HYPERLINKBASE
  1

  9
$STYLESHEET
  1

  9
$XEDIT
290
     1
  9
$CEPSNTYPE
380
     0
  9
$PSTYLEMODE
290
     1
  9
$FINGERPRINTGUID
  2
{FAEB1C30-E019-11D5-929B-00C0DF256EC4}
  9
$VERSIONGUID
  2
{FAEB1C32-E019-11D5-929B-00C0DF256EC4}
  9
$EXTNAMES
290
     1
  9
$PSVPSCALE
 40
0.0
  9
$OLESTARTUP
290
     0
  9
$SORTENTS
280
   127
  9
$INDEXCTL
280
     0
  9
$HIDETEXT
280
     0
  9
$XCLIPFRAME
280
     2
  9
$HALOGAP
280
     0
  9
$OBSCOLOR
 70
   257
  9
$OBSLTYPE
280
     0
  9
$INTERSECTIONDISPLAY
280
     0
  9
$INTERSECTIONCOLOR
 70
   257
  9
$DIMASSOC
280
     1
  9
$PROJECTNAME
  1

  9
$CAMERADISPLAY
290
     0
  9
$LENSLENGTH
 40
50.0
  9
$CAMERAHEIGHT
 40
0.0
  9
$STEPSPERSEC
 40
2.0
  9
$STEPSIZE
 40
6.0
  9
$3DDWFPREC
 40
2.0
  9
$PSOLWIDTH
 40
0.25
  9
$PSOLHEIGHT
 40
4.0
  9
$LOFTANG1
 40
1.570796326794896
  9
$LOFTANG2
 40
1.570796326794896
  9
$LOFTMAG1
 40
0.0
  9
$LOFTMAG2
 40
0.0
  9
$LOFTPARAM
 70
     7
  9
$LOFTNORMALS
280
     1
  9
$LATITUDE
 40
37.795
  9
$LONGITUDE
 40
-122.394
  9
$NORTHDIRECTION
 40
0.0
  9
$TIMEZONE
 70
 -8000
  9
$LIGHTGLYPHDISPLAY
280
     1
  9
$TILEMODELIGHTSYNCH
280
     1
  9
$CMATERIAL
347
4CF
  9
$SOLIDHIST
280
     0
  9
$SHOWHIST
280
     1
  9
$DWFFRAME
280
     2
  9
$DGNFRAME
280
     0
  9
$REALWORLDSCALE
290
     1
  9
$INTERFERECOLOR
 62
     1
  9
$INTERFEREOBJVS
345
4F1
  9
$INTERFEREVPVS
346
4EE
  9
$CSHADOW
280
     0
  9
$SHADOWPLANELOCATION
 40
0.0
  0
ENDSEC
  0
SECTION
  2
CLASSES
  0
CLASS
  1
ACDBDICTIONARYWDFLT
  2
AcDbDictionaryWithDefault
  3
ObjectDBX Classes
 90
        0
 91
        1
280
     0
281
     0
  0
CLASS
  1
MATERIAL
  2
AcDbMaterial
  3
ObjectDBX Classes
 90
     1153
 91
        3
280
     0
281
     0
  0
CLASS
  1
VISUALSTYLE
  2
AcDbVisualStyle
  3
ObjectDBX Classes
 90
     4095
 91
       24
280
     0
281
     0
  0
CLASS
  1
TABLESTYLE
  2
AcDbTableStyle
  3
ObjectDBX Classes
 90
     4095
 91
        1
280
     0
281
     0
  0
CLASS
  1
SCALE
  2
AcDbScale
  3
ObjectDBX Classes
 90
     1153
 91
       17
280
     0
281
     0
  0
CLASS
  1
MLEADERSTYLE
  2
AcDbMLeaderStyle
  3
ACDB_MLEADERSTYLE_CLASS
 90
     4095
 91
        1
280
     0
281
     0
  0
CLASS
  1
SOLID_BACKGROUND
  2
AcDbSolidBackground
  3
SCENEOE
 90
     4095
 91
        1
280
     0
281
     0
  0
CLASS
  1
NPOCOLLECTION
  2
AcDbImpNonPersistentObjectsCollection
  3
ObjectDBX Classes
 90
     1153
 91
        1
280
     0
281
     0
  0
CLASS
  1
DICTIONARYVAR
  2
AcDbDictionaryVar
  3
ObjectDBX Classes
 90
        0
 91
        7
280
     0
281
     0
  0
CLASS
  1
CELLSTYLEMAP
  2
AcDbCellStyleMap
  3
ObjectDBX Classes
 90
     1152
 91
        1
280
     0
281
     0
  0
ENDSEC
  0
SECTION
  2
TABLES
  0
TABLE
  2
VPORT
  5
8
330
0
100
AcDbSymbolTable
 70
     1
  0
VPORT
  5
29
330
8
100
AcDbSymbolTableRecord
100
AcDbViewportTableRecord
  2
*Active
 70
     0
 10
0.0
 20
0.0
 11
1.0
 21
1.0
 12
24.33431630487456
 22
13.22495059524414
 13
0.0
 23
0.0
 14
0.5
 24
0.5
 15
0.5
 25
0.5
 16
0.3894165754318237
 26
0.7214925289154053
 36
0.5725410580635071
 17
0.0000003003698623
 27
-0.0000006007397246
 37
-0.0000006007397246
 40
28.80337295408558
 41
2.2
 42
1.865823884337885
 43
0.0
 44
0.0
 50
0.0
 51
162.827705653215
 71
     0
 72
   100
 73
     1
 74
     3
 75
     0
 76
     0
 77
     0
 78
     0
281
     4
 65
     1
110
0.0
120
0.0
130
0.0
111
1.0
121
0.0
131
0.0
112
0.0
122
1.0
132
0.0
 79
     0
146
0.0
348
4EA
 60
     3
 61
     5
292
     1
282
     1
141
0.0
142
0.0
 63
   250
421
  3355443
1001
ACAD_NAV_VCDISPLAY
1070
     3
  0
ENDTAB
  0
TABLE
  2
LTYPE
  5
5
330
0
100
AcDbSymbolTable
 70
     1
  0
LTYPE
  5
14
330
5
100
AcDbSymbolTableRecord
100
AcDbLinetypeTableRecord
  2
ByBlock
 70
     0
  3

 72
    65
 73
     0
 40
0.0
  0
LTYPE
  5
15
330
5
100
AcDbSymbolTableRecord
100
AcDbLinetypeTableRecord
  2
ByLayer
 70
     0
  3

 72
    65
 73
     0
 40
0.0
  0
LTYPE
  5
16
330
5
100
AcDbSymbolTableRecord
100
AcDbLinetypeTableRecord
  2
Continuous
 70
     0
  3
Solid line
 72
    65
 73
     0
 40
0.0
  0
ENDTAB
  0
TABLE
  2
LAYER
  5
2
330
0
100
AcDbSymbolTable
 70
     1
  0
LAYER
  5
10
330
2
100
AcDbSymbolTableRecord
100
AcDbLayerTableRecord
  2
0
 70
     0
 62
     7
  6
Continuous
370
    -3
390
F
347
4DF
  0
ENDTAB
  0
TABLE
  2
STYLE
  5
3
330
0
100
AcDbSymbolTable
 70
     1
  0
STYLE
  5
11
330
3
100
AcDbSymbolTableRecord
100
AcDbTextStyleTableRecord
  2
Standard
 70
     0
 40
0.0
 41
1.0
 50
0.0
 71
     0
 42
0.2
  3
txt
  4

  0
ENDTAB
  0
TABLE
  2
VIEW
  5
6
330
0
100
AcDbSymbolTable
 70
     0
  0
ENDTAB
  0
TABLE
  2
UCS
  5
7
330
0
100
AcDbSymbolTable
 70
     0
  0
ENDTAB
  0
TABLE
  2
APPID
  5
9
330
0
100
AcDbSymbolTable
 70
     2
  0
APPID
  5
12
330
9
100
AcDbSymbolTableRecord
100
AcDbRegAppTableRecord
  2
ACAD
 70
     0
  0
APPID
  5
526
330
9
100
AcDbSymbolTableRecord
100
AcDbRegAppTableRecord
  2
ACAD_NAV_VCDISPLAY
 70
     0
  0
ENDTAB
  0
TABLE
  2
DIMSTYLE
  5
A
330
0
100
AcDbSymbolTable
 70
     1
100
AcDbDimStyleTable
 71
     0
  0
DIMSTYLE
105
27
330
A
100
AcDbSymbolTableRecord
100
AcDbDimStyleTableRecord
  2
Standard
 70
     0
340
11
  0
ENDTAB
  0
TABLE
  2
BLOCK_RECORD
  5
1
330
0
100
AcDbSymbolTable
 70
     1
  0
BLOCK_RECORD
  5
1F
330
1
100
AcDbSymbolTableRecord
100
AcDbBlockTableRecord
  2
*Model_Space
340
22
 70
     0
280
     1
281
     0
  0
BLOCK_RECORD
  5
1B
330
1
100
AcDbSymbolTableRecord
100
AcDbBlockTableRecord
  2
*Paper_Space
340
1E
 70
     0
280
     1
281
     0
  0
BLOCK_RECORD
  5
23
330
1
100
AcDbSymbolTableRecord
100
AcDbBlockTableRecord
  2
*Paper_Space0
340
26
 70
     0
280
     1
281
     0
  0
ENDTAB
  0
ENDSEC
  0
SECTION
  2
BLOCKS
  0
BLOCK
  5
20
330
1F
100
AcDbEntity
  8
0
100
AcDbBlockBegin
  2
*Model_Space
 70
     0
 10
0.0
 20
0.0
 30
0.0
  3
*Model_Space
  1

  0
ENDBLK
  5
21
330
1F
100
AcDbEntity
  8
0
100
AcDbBlockEnd
  0
BLOCK
  5
1C
330
1B
100
AcDbEntity
 67
     1
  8
0
100
AcDbBlockBegin
  2
*Paper_Space
 70
     0
 10
0.0
 20
0.0
 30
0.0
  3
*Paper_Space
  1

  0
ENDBLK
  5
1D
330
1B
100
AcDbEntity
 67
     1
  8
0
100
AcDbBlockEnd
  0
BLOCK
  5
24
330
23
100
AcDbEntity
 67
     1
  8
0
100
AcDbBlockBegin
  2
*Paper_Space0
 70
     0
 10
0.0
 20
0.0
 30
0.0
  3
*Paper_Space0
  1

  0
ENDBLK
  5
25
330
23
100
AcDbEntity
 67
     1
  8
0
100
AcDbBlockEnd
  0
ENDSEC
  0
SECTION
  2
ENTITIES
  0
POLYLINE
  5
2A
330
1F
100
AcDbEntity
  8
0
 62
     0
100
AcDbPolyFaceMesh
 66
     1
 10
0.0
 20
0.0
 30
0.0
 70
    64
 71
     6
 72
     4
  0
VERTEX
  5
2C
330
2A
100
AcDbEntity
  8
0
100
AcDbVertex
100
AcDbPolyFaceMeshVertex
 10
-4.93897623940569
 20
15.51181096583605
 30
0.000000000014086
 70
   192
  0
VERTEX
  5
2D
330
2A
100
AcDbEntity
  8
0
100
AcDbVertex
100
AcDbPolyFaceMeshVertex
 10
-4.93897623940569
 20
15.51181096583605
 30
-22.5984251126647
 70
   192
  0
VERTEX
  5
2E
330
2A
100
AcDbEntity
  8
0
100
AcDbVertex
100
AcDbPolyFaceMeshVertex
 10
-4.93897623940569
 20
14.48818892240524
 30
0.000000000014086
 70
   192
  0
VERTEX
  5
2F
330
2A
100
AcDbEntity
  8
0
100
AcDbVertex
100
AcDbPolyFaceMeshVertex
 10
-4.93897623940569
 20
0.0
 30
-22.5984251126647
 70
   192
  0
VERTEX
  5
30
330
2A
100
AcDbEntity
  8
0
100
AcDbVertex
100
AcDbPolyFaceMeshVertex
 10
-4.93897623940569
 20
1.023622043430804
 30
0.000000000014086
 70
   192
  0
VERTEX
  5
31
330
2A
100
AcDbEntity
  8
0
100
AcDbVertex
100
AcDbPolyFaceMeshVertex
 10
-4.93897623940569
 20
0.0
 30
0.000000000014086
 70
   192
  0
VERTEX
  5
32
330
2A
100
AcDbEntity
  8
0
100
AcDbFaceRecord
 10
0.0
 20
0.0
 30
0.0
 70
   128
 71
     6
 72
     5
 73
     4
  0
VERTEX
  5
33
330
2A
100
AcDbEntity
  8
0
100
AcDbFaceRecord
 10
0.0
 20
0.0
 30
0.0
 70
   128
 71
     3
 72
     4
 73
     5
  0
VERTEX
  5
34
330
2A
100
AcDbEntity
  8
0
100
AcDbFaceRecord
 10
0.0
 20
0.0
 30
0.0
 70
   128
 71
     4
 72
     3
 73
     2
  0
VERTEX
  5
35
330
2A
100
AcDbEntity
  8
0
100
AcDbFaceRecord
 10
0.0
 20
0.0
 30
0.0
 70
   128
 71
     1
 72
     2
 73
     3
  0
SEQEND
  5
2B
330
2A
100
AcDbEntity
  8
0
  0
POLYLINE
  5
36
330
1F
100
AcDbEntity
  8
0
 62
     0
100
AcDbPolyFaceMesh
 66
     1
 10
0.0
 20
0.0
 30
0.0
 70
    64
 71
     6
 72
     4
  0
VERTEX
  5
38
330
36
100
AcDbEntity
  8
0
100
AcDbVertex
100
AcDbPolyFaceMeshVertex
 10
4.93897623940569
 20
14.48818892240524
 30
0.000000000014086
 70
   192
  0
VERTEX
  5
39
330
36
100
AcDbEntity
  8
0
100
AcDbVertex
100
AcDbPolyFaceMeshVertex
 10
4.93897623940569
 20
15.51181096583605
 30
-22.5984251126647
 70
   192
  0
VERTEX
  5
3A
330
36
100
AcDbEntity
  8
0
100
AcDbVertex
100
AcDbPolyFaceMeshVertex
 10
4.93897623940569
 20
15.51181096583605
 30
0.000000000014086
 70
   192
  0
VERTEX
  5
3B
330
36
100
AcDbEntity
  8
0
100
AcDbVertex
100
AcDbPolyFaceMeshVertex
 10
4.93897623940569
 20
0.0
 30
-22.5984251126647
 70
   192
  0
VERTEX
  5
3C
330
36
100
AcDbEntity
  8
0
100
AcDbVertex
100
AcDbPolyFaceMeshVertex
 10
4.93897623940569
 20
1.023622043430804
 30
0.000000000014086
 70
   192
  0
VERTEX
  5
3D
330
36
100
AcDbEntity
  8
0
100
AcDbVertex
100
AcDbPolyFaceMeshVertex
 10
4.93897623940569
 20
0.0
 30
0.000000000014086
 70
   192
  0
VERTEX
  5
3E
330
36
100
AcDbEntity
  8
0
100
AcDbFaceRecord
 10
0.0
 20
0.0
 30
0.0
 70
   128
 71
     2
 72
     1
 73
     4
  0
VERTEX
  5
3F
330
36
100
AcDbEntity
  8
0
100
AcDbFaceRecord
 10
0.0
 20
0.0
 30
0.0
 70
   128
 71
     5
 72
     4
 73
     1
  0
VERTEX
  5
40
330
36
100
AcDbEntity
  8
0
100
AcDbFaceRecord
 10
0.0
 20
0.0
 30
0.0
 70
   128
 71
     4
 72
     5
 73
     6
  0
VERTEX
  5
41
330
36
100
AcDbEntity
  8
0
100
AcDbFaceRecord
 10
0.0
 20
0.0
 30
0.0
 70
   128
 71
     1
 72
     2
 73
     3
  0
SEQEND
  5
37
330
36
100
AcDbEntity
  8
0
  0
POLYLINE
  5
42
330
1F
100
AcDbEntity
  8
0
 62
     0
100
AcDbPolyFaceMesh
 66
     1
 10
0.0
 20
0.0
 30
0.0
 70
    64
 71
     4
 72
     2
  0
VERTEX
  5
44
330
42
100
AcDbEntity
  8
0
100
AcDbVertex
100
AcDbPolyFaceMeshVertex
 10
-3.937007859349251
 20
13.70078735053539
 30
-21.65354322642088
 70
   192
  0
VERTEX
  5
45
330
42
100
AcDbEntity
  8
0
100
AcDbVertex
100
AcDbPolyFaceMeshVertex
 10
3.937007859349251
 20
13.70078735053539
 30
-21.65354322642088
 70
   192
  0
VERTEX
  5
46
330
42
100
AcDbEntity
  8
0
100
AcDbVertex
100
AcDbPolyFaceMeshVertex
 10
3.937007859349251
 20
13.70078735053539
 30
0.0393700785934925
 70
   192
  0
VERTEX
  5
47
330
42
100
AcDbEntity
  8
0
100
AcDbVertex
100
AcDbPolyFaceMeshVertex
 10
-3.937007859349251
 20
13.70078735053539
 30
0.0393700785934925
 70
   192
  0
VERTEX
  5
48
330
42
100
AcDbEntity
  8
0
100
AcDbFaceRecord
 10
0.0
 20
0.0
 30
0.0
 70
   128
 71
     4
 72
     1
 73
     3
  0
VERTEX
  5
49
330
42
100
AcDbEntity
  8
0
100
AcDbFaceRecord
 10
0.0
 20
0.0
 30
0.0
 70
   128
 71
     2
 72
     3
 73
     1
  0
SEQEND
  5
43
330
42
100
AcDbEntity
  8
0
  0
POLYLINE
  5
4A
330
1F
100
AcDbEntity
  8
0
 62
     0
100
AcDbPolyFaceMesh
 66
     1
 10
0.0
 20
0.0
 30
0.0
 70
    64
 71
     4
 72
     2
  0
VERTEX
  5
4C
330
4A
100
AcDbEntity
  8
0
100
AcDbVertex
100
AcDbPolyFaceMeshVertex
 10
3.937007859349251
 20
11.92913381382823
 30
-2.952755894511938
 70
   192
  0
VERTEX
  5
4D
330
4A
100
AcDbEntity
  8
0
100
AcDbVertex
100
AcDbPolyFaceMeshVertex
 10
3.937007859349251
 20
11.92913381382823
 30
-21.65354322642088
 70
   192
  0
VERTEX
  5
4E
330
4A
100
AcDbEntity
  8
0
100
AcDbVertex
100
AcDbPolyFaceMeshVertex
 10
-3.937007859349251
 20
11.92913381382823
 30
-21.65354322642088
 70
   192
  0
VERTEX
  5
4F
330
4A
100
AcDbEntity
  8
0
100
AcDbVertex
100
AcDbPolyFaceMeshVertex
 10
-3.937007859349251
 20
11.92913381382823
 30
-2.952755894511938
 70
   192
  0
VERTEX
  5
50
330
4A
100
AcDbEntity
  8
0
100
AcDbFaceRecord
 10
0.0
 20
0.0
 30
0.0
 70
   128
 71
     4
 72
     1
 73
     3
  0
VERTEX
  5
51
330
4A
100
AcDbEntity
  8
0
100
AcDbFaceRecord
 10
0.0
 20
0.0
 30
0.0
 70
   128
 71
     2
 72
     3
 73
     1
  0
SEQEND
  5
4B
330
4A
100
AcDbEntity
  8
0
  0
POLYLINE
  5
52
330
1F
100
AcDbEntity
  8
0
 62
     0
100
AcDbPolyFaceMesh
 66
     1
 10
0.0
 20
0.0
 30
0.0
 70
    64
 71
     8
 72
     6
  0
VERTEX
  5
54
330
52
100
AcDbEntity
  8
0
100
AcDbVertex
100
AcDbPolyFaceMeshVertex
 10
-4.724409431219101
 20
14.48818892240524
 30
0.0
 70
   192
  0
VERTEX
  5
55
330
52
100
AcDbEntity
  8
0
100
AcDbVertex
100
AcDbPolyFaceMeshVertex
 10
-4.93897623940569
 20
1.023622043430804
 30
0.000000000014086
 70
   192
  0
VERTEX
  5
56
330
52
100
AcDbEntity
  8
0
100
AcDbVertex
100
AcDbPolyFaceMeshVertex
 10
-4.724409431219101
 20
9.173228312283754
 30
0.0
 70
   192
  0
VERTEX
  5
57
330
52
100
AcDbEntity
  8
0
100
AcDbVertex
100
AcDbPolyFaceMeshVertex
 10
4.724409431219101
 20
9.173228312283754
 30
0.0
 70
   192
  0
VERTEX
  5
58
330
52
100
AcDbEntity
  8
0
100
AcDbVertex
100
AcDbPolyFaceMeshVertex
 10
4.93897623940569
 20
1.023622043430804
 30
0.000000000014086
 70
   192
  0
VERTEX
  5
59
330
52
100
AcDbEntity
  8
0
100
AcDbVertex
100
AcDbPolyFaceMeshVertex
 10
4.93897623940569
 20
14.48818892240524
 30
0.000000000014086
 70
   192
  0
VERTEX
  5
5A
330
52
100
AcDbEntity
  8
0
100
AcDbVertex
100
AcDbPolyFaceMeshVertex
 10
4.724409431219101
 20
14.48818892240524
 30
0.0
 70
   192
  0
VERTEX
  5
5B
330
52
100
AcDbEntity
  8
0
100
AcDbVertex
100
AcDbPolyFaceMeshVertex
 10
-4.93897623940569
 20
14.48818892240524
 30
0.000000000014086
 70
   192
  0
VERTEX
  5
5C
330
52
100
AcDbEntity
  8
0
100
AcDbFaceRecord
 10
0.0
 20
0.0
 30
0.0
 70
   128
 71
     2
 72
     5
 73
     4
  0
VERTEX
  5
5D
330
52
100
AcDbEntity
  8
0
100
AcDbFaceRecord
 10
0.0
 20
0.0
 30
0.0
 70
   128
 71
     6
 72
     4
 73
     5
  0
VERTEX
  5
5E
330
52
100
AcDbEntity
  8
0
100
AcDbFaceRecord
 10
0.0
 20
0.0
 30
0.0
 70
   128
 71
     4
 72
     6
 73
     7
  0
VERTEX
  5
5F
330
52
100
AcDbEntity
  8
0
100
AcDbFaceRecord
 10
0.0
 20
0.0
 30
0.0
 70
   128
 71
     4
 72
     3
 73
     2
  0
VERTEX
  5
60
330
52
100
AcDbEntity
  8
0
100
AcDbFaceRecord
 10
0.0
 20
0.0
 30
0.0
 70
   128
 71
     1
 72
     2
 73
     3
  0
VERTEX
  5
61
330
52
100
AcDbEntity
  8
0
100
AcDbFaceRecord
 10
0.0
 20
0.0
 30
0.0
 70
   128
 71
     2
 72
     1
 73
     8
  0
SEQEND
  5
53
330
52
100
AcDbEntity
  8
0
  0
POLYLINE
  5
62
330
1F
100
AcDbEntity
  8
0
 62
     0
100
AcDbPolyFaceMesh
 66
     1
 10
0.0
 20
0.0
 30
0.0
 70
    64
 71
     6
 72
     4
  0
VERTEX
  5
64
330
62
100
AcDbEntity
  8
0
100
AcDbVertex
100
AcDbPolyFaceMeshVertex
 10
-3.937007859349251
 20
11.92913381382823
 30
-2.952755894511938
 70
   192
  0
VERTEX
  5
65
330
62
100
AcDbEntity
  8
0
100
AcDbVertex
100
AcDbPolyFaceMeshVertex
 10
-3.937007859349251
 20
11.92913381382823
 30
-21.65354322642088
 70
   192
  0
VERTEX
  5
66
330
62
100
AcDbEntity
  8
0
100
AcDbVertex
100
AcDbPolyFaceMeshVertex
 10
-3.937007859349251
 20
13.70078735053539
 30
-21.65354322642088
 70
   192
  0
VERTEX
  5
67
330
62
100
AcDbEntity
  8
0
100
AcDbVertex
100
AcDbPolyFaceMeshVertex
 10
-3.937007859349251
 20
13.70078735053539
 30
0.0393700785934925
 70
   192
  0
VERTEX
  5
68
330
62
100
AcDbEntity
  8
0
100
AcDbVertex
100
AcDbPolyFaceMeshVertex
 10
-3.937007859349251
 20
9.960629283413881
 30
0.0000000000065562
 70
   192
  0
VERTEX
  5
69
330
62
100
AcDbEntity
  8
0
100
AcDbVertex
100
AcDbPolyFaceMeshVertex
 10
-3.937007859349251
 20
9.960629283413881
 30
0.0393700785934925
 70
   192
  0
VERTEX
  5
6A
330
62
100
AcDbEntity
  8
0
100
AcDbFaceRecord
 10
0.0
 20
0.0
 30
0.0
 70
   128
 71
     6
 72
     5
 73
     4
  0
VERTEX
  5
6B
330
62
100
AcDbEntity
  8
0
100
AcDbFaceRecord
 10
0.0
 20
0.0
 30
0.0
 70
   128
 71
     1
 72
     4
 73
     5
  0
VERTEX
  5
6C
330
62
100
AcDbEntity
  8
0
100
AcDbFaceRecord
 10
0.0
 20
0.0
 30
0.0
 70
   128
 71
     4
 72
     1
 73
     3
  0
VERTEX
  5
6D
330
62
100
AcDbEntity
  8
0
100
AcDbFaceRecord
 10
0.0
 20
0.0
 30
0.0
 70
   128
 71
     2
 72
     3
 73
     1
  0
SEQEND
  5
63
330
62
100
AcDbEntity
  8
0
  0
POLYLINE
  5
6E
330
1F
100
AcDbEntity
  8
0
 62
     0
100
AcDbPolyFaceMesh
 66
     1
 10
0.0
 20
0.0
 30
0.0
 70
    64
 71
     6
 72
     4
  0
VERTEX
  5
70
330
6E
100
AcDbEntity
  8
0
100
AcDbVertex
100
AcDbPolyFaceMeshVertex
 10
3.937007859349251
 20
13.70078735053539
 30
-21.65354322642088
 70
   192
  0
VERTEX
  5
71
330
6E
100
AcDbEntity
  8
0
100
AcDbVertex
100
AcDbPolyFaceMeshVertex
 10
3.937007859349251
 20
11.92913381382823
 30
-2.952755894511938
 70
   192
  0
VERTEX
  5
72
330
6E
100
AcDbEntity
  8
0
100
AcDbVertex
100
AcDbPolyFaceMeshVertex
 10
3.937007859349251
 20
13.70078735053539
 30
0.0393700785934925
 70
   192
  0
VERTEX
  5
73
330
6E
100
AcDbEntity
  8
0
100
AcDbVertex
100
AcDbPolyFaceMeshVertex
 10
3.937007859349251
 20
11.92913381382823
 30
-21.65354322642088
 70
   192
  0
VERTEX
  5
74
330
6E
100
AcDbEntity
  8
0
100
AcDbVertex
100
AcDbPolyFaceMeshVertex
 10
3.937007859349251
 20
9.960629283413881
 30
0.0000000000065562
 70
   192
  0
VERTEX
  5
75
330
6E
100
AcDbEntity
  8
0
100
AcDbVertex
100
AcDbPolyFaceMeshVertex
 10
3.937007859349251
 20
9.960629283413881
 30
0.0393700785934925
 70
   192
  0
VERTEX
  5
76
330
6E
100
AcDbEntity
  8
0
100
AcDbFaceRecord
 10
0.0
 20
0.0
 30
0.0
 70
   128
 71
     1
 72
     2
 73
     3
  0
VERTEX
  5
77
330
6E
100
AcDbEntity
  8
0
100
AcDbFaceRecord
 10
0.0
 20
0.0
 30
0.0
 70
   128
 71
     5
 72
     3
 73
     2
  0
VERTEX
  5
78
330
6E
100
AcDbEntity
  8
0
100
AcDbFaceRecord
 10
0.0
 20
0.0
 30
0.0
 70
   128
 71
     3
 72
     5
 73
     6
  0
VERTEX
  5
79
330
6E
100
AcDbEntity
  8
0
100
AcDbFaceRecord
 10
0.0
 20
0.0
 30
0.0
 70
   128
 71
     1
 72
     4
 73
     2
  0
SEQEND
  5
6F
330
6E
100
AcDbEntity
  8
0
  0
POLYLINE
  5
7A
330
1F
100
AcDbEntity
  8
0
 62
     0
100
AcDbPolyFaceMesh
 66
     1
 10
0.0
 20
0.0
 30
0.0
 70
    64
 71
     4
 72
     2
  0
VERTEX
  5
7C
330
7A
100
AcDbEntity
  8
0
100
AcDbVertex
100
AcDbPolyFaceMeshVertex
 10
3.937007859349251
 20
9.960629283413881
 30
0.0000000000065562
 70
   192
  0
VERTEX
  5
7D
330
7A
100
AcDbEntity
  8
0
100
AcDbVertex
100
AcDbPolyFaceMeshVertex
 10
3.937007859349251
 20
11.92913381382823
 30
-2.952755894511938
 70
   192
  0
VERTEX
  5
7E
330
7A
100
AcDbEntity
  8
0
100
AcDbVertex
100
AcDbPolyFaceMeshVertex
 10
-3.937007859349251
 20
11.92913381382823
 30
-2.952755894511938
 70
   192
  0
VERTEX
  5
7F
330
7A
100
AcDbEntity
  8
0
100
AcDbVertex
100
AcDbPolyFaceMeshVertex
 10
-3.937007859349251
 20
9.960629283413881
 30
0.0000000000065562
 70
   192
  0
VERTEX
  5
80
330
7A
100
AcDbEntity
  8
0
100
AcDbFaceRecord
 10
0.0
 20
0.0
 30
0.0
 70
   128
 71
     4
 72
     1
 73
     3
  0
VERTEX
  5
81
330
7A
100
AcDbEntity
  8
0
100
AcDbFaceRecord
 10
0.0
 20
0.0
 30
0.0
 70
   128
 71
     2
 72
     3
 73
     1
  0
SEQEND
  5
7B
330
7A
100
AcDbEntity
  8
0
  0
POLYLINE
  5
82
330
1F
100
AcDbEntity
  8
0
 62
     0
100
AcDbPolyFaceMesh
 66
     1
 10
0.0
 20
0.0
 30
0.0
 70
    64
 71
    24
 72
    24
  0
VERTEX
  5
84
330
82
100
AcDbEntity
  8
0
100
AcDbVertex
100
AcDbPolyFaceMeshVertex
 10
2.751771511129419
 20
2.30708669568962
 30
-22.5984251126647
 70
   192
  0
VERTEX
  5
85
330
82
100
AcDbEntity
  8
0
100
AcDbVertex
100
AcDbPolyFaceMeshVertex
 10
-4.93897623940569
 20
0.0
 30
-22.5984251126647
 70
   192
  0
VERTEX
  5
86
330
82
100
AcDbEntity
  8
0
100
AcDbVertex
100
AcDbPolyFaceMeshVertex
 10
-2.751771511129419
 20
2.30708669568962
 30
-22.5984251126647
 70
   192
  0
VERTEX
  5
87
330
82
100
AcDbEntity
  8
0
100
AcDbVertex
100
AcDbPolyFaceMeshVertex
 10
4.93897623940569
 20
0.0
 30
-22.5984251126647
 70
   192
  0
VERTEX
  5
88
330
82
100
AcDbEntity
  8
0
100
AcDbVertex
100
AcDbPolyFaceMeshVertex
 10
-2.751771511129419
 20
6.30669298600992
 30
-22.5984251126647
 70
   192
  0
VERTEX
  5
89
330
82
100
AcDbEntity
  8
0
100
AcDbVertex
100
AcDbPolyFaceMeshVertex
 10
4.93897623940569
 20
15.51181096583605
 30
-22.5984251126647
 70
   192
  0
VERTEX
  5
8A
330
82
100
AcDbEntity
  8
0
100
AcDbVertex
100
AcDbPolyFaceMeshVertex
 10
2.751771511129419
 20
6.30669298600992
 30
-22.5984251126647
 70
   192
  0
VERTEX
  5
8B
330
82
100
AcDbEntity
  8
0
100
AcDbVertex
100
AcDbPolyFaceMeshVertex
 10
-4.93897623940569
 20
15.51181096583605
 30
-22.5984251126647
 70
   192
  0
VERTEX
  5
8C
330
82
100
AcDbEntity
  8
0
100
AcDbVertex
100
AcDbPolyFaceMeshVertex
 10
-2.851962281663844
 20
6.286763445645249
 30
-22.5984251126647
 70
   192
  0
VERTEX
  5
8D
330
82
100
AcDbEntity
  8
0
100
AcDbVertex
100
AcDbPolyFaceMeshVertex
 10
-2.936899970219997
 20
6.230009761640076
 30
-22.5984251126647
 70
   192
  0
VERTEX
  5
8E
330
82
100
AcDbEntity
  8
0
100
AcDbVertex
100
AcDbPolyFaceMeshVertex
 10
-2.99365365422517
 20
6.145072974193512
 30
-22.5984251126647
 70
   192
  0
VERTEX
  5
8F
330
82
100
AcDbEntity
  8
0
100
AcDbVertex
100
AcDbPolyFaceMeshVertex
 10
-3.013582593850116
 20
6.044881602919361
 30
-22.5984251126647
 70
   192
  0
VERTEX
  5
90
330
82
100
AcDbEntity
  8
0
100
AcDbVertex
100
AcDbPolyFaceMeshVertex
 10
-3.013582593850116
 20
2.568897628225385
 30
-22.5984251126647
 70
   192
  0
VERTEX
  5
91
330
82
100
AcDbEntity
  8
0
100
AcDbVertex
100
AcDbPolyFaceMeshVertex
 10
-2.99365365422517
 20
2.468706707506029
 30
-22.5984251126647
 70
   192
  0
VERTEX
  5
92
330
82
100
AcDbEntity
  8
0
100
AcDbVertex
100
AcDbPolyFaceMeshVertex
 10
-2.936899970219997
 20
2.38376931931974
 30
-22.5984251126647
 70
   192
  0
VERTEX
  5
93
330
82
100
AcDbEntity
  8
0
100
AcDbVertex
100
AcDbPolyFaceMeshVertex
 10
-2.851962281663844
 20
2.327015785499498
 30
-22.5984251126647
 70
   192
  0
VERTEX
  5
94
330
82
100
AcDbEntity
  8
0
100
AcDbVertex
100
AcDbPolyFaceMeshVertex
 10
2.851962281663844
 20
2.327015785499498
 30
-22.5984251126647
 70
   192
  0
VERTEX
  5
95
330
82
100
AcDbEntity
  8
0
100
AcDbVertex
100
AcDbPolyFaceMeshVertex
 10
2.936899970219997
 20
2.38376931931974
 30
-22.5984251126647
 70
   192
  0
VERTEX
  5
96
330
82
100
AcDbEntity
  8
0
100
AcDbVertex
100
AcDbPolyFaceMeshVertex
 10
2.99365365422517
 20
2.468706707506029
 30
-22.5984251126647
 70
   192
  0
VERTEX
  5
97
330
82
100
AcDbEntity
  8
0
100
AcDbVertex
100
AcDbPolyFaceMeshVertex
 10
3.013582593850116
 20
2.568897628225385
 30
-22.5984251126647
 70
   192
  0
VERTEX
  5
98
330
82
100
AcDbEntity
  8
0
100
AcDbVertex
100
AcDbPolyFaceMeshVertex
 10
3.013582593850116
 20
6.044881602919361
 30
-22.5984251126647
 70
   192
  0
VERTEX
  5
99
330
82
100
AcDbEntity
  8
0
100
AcDbVertex
100
AcDbPolyFaceMeshVertex
 10
2.99365365422517
 20
6.145072974193512
 30
-22.5984251126647
 70
   192
  0
VERTEX
  5
9A
330
82
100
AcDbEntity
  8
0
100
AcDbVertex
100
AcDbPolyFaceMeshVertex
 10
2.936899970219997
 20
6.230009761640076
 30
-22.5984251126647
 70
   192
  0
VERTEX
  5
9B
330
82
100
AcDbEntity
  8
0
100
AcDbVertex
100
AcDbPolyFaceMeshVertex
 10
2.851962281663844
 20
6.286763445645249
 30
-22.5984251126647
 70
   192
  0
VERTEX
  5
9C
330
82
100
AcDbEntity
  8
0
100
AcDbFaceRecord
 10
0.0
 20
0.0
 30
0.0
 70
   128
 71
    14
 72
    15
 73
     2
  0
VERTEX
  5
9D
330
82
100
AcDbEntity
  8
0
100
AcDbFaceRecord
 10
0.0
 20
0.0
 30
0.0
 70
   128
 71
    16
 72
     2
 73
    15
  0
VERTEX
  5
9E
330
82
100
AcDbEntity
  8
0
100
AcDbFaceRecord
 10
0.0
 20
0.0
 30
0.0
 70
   128
 71
    19
 72
    20
 73
     4
  0
VERTEX
  5
9F
330
82
100
AcDbEntity
  8
0
100
AcDbFaceRecord
 10
0.0
 20
0.0
 30
0.0
 70
   128
 71
    21
 72
     4
 73
    20
  0
VERTEX
  5
A0
330
82
100
AcDbEntity
  8
0
100
AcDbFaceRecord
 10
0.0
 20
0.0
 30
0.0
 70
   128
 71
     4
 72
    21
 73
     6
  0
VERTEX
  5
A1
330
82
100
AcDbEntity
  8
0
100
AcDbFaceRecord
 10
0.0
 20
0.0
 30
0.0
 70
   128
 71
    10
 72
    11
 73
     8
  0
VERTEX
  5
A2
330
82
100
AcDbEntity
  8
0
100
AcDbFaceRecord
 10
0.0
 20
0.0
 30
0.0
 70
   128
 71
    12
 72
     8
 73
    11
  0
VERTEX
  5
A3
330
82
100
AcDbEntity
  8
0
100
AcDbFaceRecord
 10
0.0
 20
0.0
 30
0.0
 70
   128
 71
     8
 72
    12
 73
     2
  0
VERTEX
  5
A4
330
82
100
AcDbEntity
  8
0
100
AcDbFaceRecord
 10
0.0
 20
0.0
 30
0.0
 70
   128
 71
    13
 72
     2
 73
    12
  0
VERTEX
  5
A5
330
82
100
AcDbEntity
  8
0
100
AcDbFaceRecord
 10
0.0
 20
0.0
 30
0.0
 70
   128
 71
     2
 72
    13
 73
    14
  0
VERTEX
  5
A6
330
82
100
AcDbEntity
  8
0
100
AcDbFaceRecord
 10
0.0
 20
0.0
 30
0.0
 70
   128
 71
    21
 72
    22
 73
     6
  0
VERTEX
  5
A7
330
82
100
AcDbEntity
  8
0
100
AcDbFaceRecord
 10
0.0
 20
0.0
 30
0.0
 70
   128
 71
    23
 72
     6
 73
    22
  0
VERTEX
  5
A8
330
82
100
AcDbEntity
  8
0
100
AcDbFaceRecord
 10
0.0
 20
0.0
 30
0.0
 70
   128
 71
     6
 72
    23
 73
    24
  0
VERTEX
  5
A9
330
82
100
AcDbEntity
  8
0
100
AcDbFaceRecord
 10
0.0
 20
0.0
 30
0.0
 70
   128
 71
    24
 72
     7
 73
     6
  0
VERTEX
  5
AA
330
82
100
AcDbEntity
  8
0
100
AcDbFaceRecord
 10
0.0
 20
0.0
 30
0.0
 70
   128
 71
     5
 72
     6
 73
     7
  0
VERTEX
  5
AB
330
82
100
AcDbEntity
  8
0
100
AcDbFaceRecord
 10
0.0
 20
0.0
 30
0.0
 70
   128
 71
     6
 72
     5
 73
     8
  0
VERTEX
  5
AC
330
82
100
AcDbEntity
  8
0
100
AcDbFaceRecord
 10
0.0
 20
0.0
 30
0.0
 70
   128
 71
     9
 72
     8
 73
     5
  0
VERTEX
  5
AD
330
82
100
AcDbEntity
  8
0
100
AcDbFaceRecord
 10
0.0
 20
0.0
 30
0.0
 70
   128
 71
     8
 72
     9
 73
    10
  0
VERTEX
  5
AE
330
82
100
AcDbEntity
  8
0
100
AcDbFaceRecord
 10
0.0
 20
0.0
 30
0.0
 70
   128
 71
    16
 72
     3
 73
     2
  0
VERTEX
  5
AF
330
82
100
AcDbEntity
  8
0
100
AcDbFaceRecord
 10
0.0
 20
0.0
 30
0.0
 70
   128
 71
     1
 72
     2
 73
     3
  0
VERTEX
  5
B0
330
82
100
AcDbEntity
  8
0
100
AcDbFaceRecord
 10
0.0
 20
0.0
 30
0.0
 70
   128
 71
     2
 72
     1
 73
     4
  0
VERTEX
  5
B1
330
82
100
AcDbEntity
  8
0
100
AcDbFaceRecord
 10
0.0
 20
0.0
 30
0.0
 70
   128
 71
    17
 72
     4
 73
     1
  0
VERTEX
  5
B2
330
82
100
AcDbEntity
  8
0
100
AcDbFaceRecord
 10
0.0
 20
0.0
 30
0.0
 70
   128
 71
     4
 72
    17
 73
    18
  0
VERTEX
  5
B3
330
82
100
AcDbEntity
  8
0
100
AcDbFaceRecord
 10
0.0
 20
0.0
 30
0.0
 70
   128
 71
    18
 72
    19
 73
     4
  0
SEQEND
  5
83
330
82
100
AcDbEntity
  8
0
  0
POLYLINE
  5
B4
330
1F
100
AcDbEntity
  8
0
 62
     0
100
AcDbPolyFaceMesh
 66
     1
 10
0.0
 20
0.0
 30
0.0
 70
    64
 71
     8
 72
     8
  0
VERTEX
  5
B6
330
B4
100
AcDbEntity
  8
0
100
AcDbVertex
100
AcDbPolyFaceMeshVertex
 10
-3.937007859349251
 20
9.960629283413881
 30
0.0393700785934925
 70
   192
  0
VERTEX
  5
B7
330
B4
100
AcDbEntity
  8
0
100
AcDbVertex
100
AcDbPolyFaceMeshVertex
 10
4.724409431219101
 20
9.173228312283754
 30
0.0393700785934925
 70
   192
  0
VERTEX
  5
B8
330
B4
100
AcDbEntity
  8
0
100
AcDbVertex
100
AcDbPolyFaceMeshVertex
 10
3.937007859349251
 20
9.960629283413881
 30
0.0393700785934925
 70
   192
  0
VERTEX
  5
B9
330
B4
100
AcDbEntity
  8
0
100
AcDbVertex
100
AcDbPolyFaceMeshVertex
 10
-4.724409431219101
 20
9.173228312283754
 30
0.0393700785934925
 70
   192
  0
VERTEX
  5
BA
330
B4
100
AcDbEntity
  8
0
100
AcDbVertex
100
AcDbPolyFaceMeshVertex
 10
3.937007859349251
 20
13.70078735053539
 30
0.0393700785934925
 70
   192
  0
VERTEX
  5
BB
330
B4
100
AcDbEntity
  8
0
100
AcDbVertex
100
AcDbPolyFaceMeshVertex
 10
-4.724409431219101
 20
14.48818892240524
 30
0.0393700785934925
 70
   192
  0
VERTEX
  5
BC
330
B4
100
AcDbEntity
  8
0
100
AcDbVertex
100
AcDbPolyFaceMeshVertex
 10
-3.937007859349251
 20
13.70078735053539
 30
0.0393700785934925
 70
   192
  0
VERTEX
  5
BD
330
B4
100
AcDbEntity
  8
0
100
AcDbVertex
100
AcDbPolyFaceMeshVertex
 10
4.724409431219101
 20
14.48818892240524
 30
0.0393700785934925
 70
   192
  0
VERTEX
  5
BE
330
B4
100
AcDbEntity
  8
0
100
AcDbFaceRecord
 10
0.0
 20
0.0
 30
0.0
 70
   128
 71
     1
 72
     7
 73
     6
  0
VERTEX
  5
BF
330
B4
100
AcDbEntity
  8
0
100
AcDbFaceRecord
 10
0.0
 20
0.0
 30
0.0
 70
   128
 71
     5
 72
     6
 73
     7
  0
VERTEX
  5
C0
330
B4
100
AcDbEntity
  8
0
100
AcDbFaceRecord
 10
0.0
 20
0.0
 30
0.0
 70
   128
 71
     6
 72
     5
 73
     8
  0
VERTEX
  5
C1
330
B4
100
AcDbEntity
  8
0
100
AcDbFaceRecord
 10
0.0
 20
0.0
 30
0.0
 70
   128
 71
     2
 72
     8
 73
     5
  0
VERTEX
  5
C2
330
B4
100
AcDbEntity
  8
0
100
AcDbFaceRecord
 10
0.0
 20
0.0
 30
0.0
 70
   128
 71
     5
 72
     3
 73
     2
  0
VERTEX
  5
C3
330
B4
100
AcDbEntity
  8
0
100
AcDbFaceRecord
 10
0.0
 20
0.0
 30
0.0
 70
   128
 71
     1
 72
     2
 73
     3
  0
VERTEX
  5
C4
330
B4
100
AcDbEntity
  8
0
100
AcDbFaceRecord
 10
0.0
 20
0.0
 30
0.0
 70
   128
 71
     2
 72
     1
 73
     4
  0
VERTEX
  5
C5
330
B4
100
AcDbEntity
  8
0
100
AcDbFaceRecord
 10
0.0
 20
0.0
 30
0.0
 70
   128
 71
     6
 72
     4
 73
     1
  0
SEQEND
  5
B5
330
B4
100
AcDbEntity
  8
0
  0
POLYLINE
  5
C6
330
1F
100
AcDbEntity
  8
0
 62
     0
100
AcDbPolyFaceMesh
 66
     1
 10
0.0
 20
0.0
 30
0.0
 70
    64
 71
    39
 72
    43
  0
VERTEX
  5
C8
330
C6
100
AcDbEntity
  8
0
100
AcDbVertex
100
AcDbPolyFaceMeshVertex
 10
-0.1968503929674625
 20
15.51181096583605
 30
-11.25984247773886
 70
   192
  0
VERTEX
  5
C9
330
C6
100
AcDbEntity
  8
0
100
AcDbVertex
100
AcDbPolyFaceMeshVertex
 10
-3.600963368855758
 20
15.51181096583605
 30
-11.16001755769673
 70
   192
  0
VERTEX
  5
CA
330
C6
100
AcDbEntity
  8
0
100
AcDbVertex
100
AcDbPolyFaceMeshVertex
 10
-0.1391942477109609
 20
15.51181096583605
 30
-11.12064868058269
 70
   192
  0
VERTEX
  5
CB
330
C6
100
AcDbEntity
  8
0
100
AcDbVertex
100
AcDbPolyFaceMeshVertex
 10
-3.543307073414326
 20
15.51181096583605
 30
-11.29921255633235
 70
   192
  0
VERTEX
  5
CC
330
C6
100
AcDbEntity
  8
0
100
AcDbVertex
100
AcDbPolyFaceMeshVertex
 10
-3.937007859349251
 20
15.51181096583605
 30
-11.29921255633235
 70
   192
  0
VERTEX
  5
CD
330
C6
100
AcDbEntity
  8
0
100
AcDbVertex
100
AcDbPolyFaceMeshVertex
 10
-4.93897623940569
 20
15.51181096583605
 30
0.000000000014086
 70
   192
  0
VERTEX
  5
CE
330
C6
100
AcDbEntity
  8
0
100
AcDbVertex
100
AcDbPolyFaceMeshVertex
 10
-3.879351563907817
 20
15.51181096583605
 30
-11.16001755769673
 70
   192
  0
VERTEX
  5
CF
330
C6
100
AcDbEntity
  8
0
100
AcDbVertex
100
AcDbPolyFaceMeshVertex
 10
-4.93897623940569
 20
15.51181096583605
 30
-22.5984251126647
 70
   192
  0
VERTEX
  5
D0
330
C6
100
AcDbEntity
  8
0
100
AcDbVertex
100
AcDbPolyFaceMeshVertex
 10
-3.879351563907817
 20
15.51181096583605
 30
-11.43840755496797
 70
   192
  0
VERTEX
  5
D1
330
C6
100
AcDbEntity
  8
0
100
AcDbVertex
100
AcDbPolyFaceMeshVertex
 10
-3.740157466381788
 20
15.51181096583605
 30
-11.49606294929981
 70
   192
  0
VERTEX
  5
D2
330
C6
100
AcDbEntity
  8
0
100
AcDbVertex
100
AcDbPolyFaceMeshVertex
 10
-3.740157466381788
 20
15.51181096583605
 30
-11.10236216336489
 70
   192
  0
VERTEX
  5
D3
330
C6
100
AcDbEntity
  8
0
100
AcDbVertex
100
AcDbPolyFaceMeshVertex
 10
-0.0000000000005023
 20
15.51181096583605
 30
-11.0629920847714
 70
   192
  0
VERTEX
  5
D4
330
C6
100
AcDbEntity
  8
0
100
AcDbVertex
100
AcDbPolyFaceMeshVertex
 10
-2.008455824691424
 20
15.51181096583605
 30
1.069224120835165
 70
   192
  0
VERTEX
  5
D5
330
C6
100
AcDbEntity
  8
0
100
AcDbVertex
100
AcDbPolyFaceMeshVertex
 10
-0.0000000000043147
 20
15.51181096583605
 30
1.045050053946106
 70
   192
  0
VERTEX
  5
D6
330
C6
100
AcDbEntity
  8
0
100
AcDbVertex
100
AcDbPolyFaceMeshVertex
 10
-0.1391942477109609
 20
15.51181096583605
 30
-20.49072738583391
 70
   192
  0
VERTEX
  5
D7
330
C6
100
AcDbEntity
  8
0
100
AcDbVertex
100
AcDbPolyFaceMeshVertex
 10
-0.0000000000005023
 20
15.51181096583605
 30
-20.43307079002261
 70
   192
  0
VERTEX
  5
D8
330
C6
100
AcDbEntity
  8
0
100
AcDbVertex
100
AcDbPolyFaceMeshVertex
 10
-0.1391942477109609
 20
15.51181096583605
 30
-11.39903627489503
 70
   192
  0
VERTEX
  5
D9
330
C6
100
AcDbEntity
  8
0
100
AcDbVertex
100
AcDbPolyFaceMeshVertex
 10
0.0000000000015068
 20
15.51181096583605
 30
-11.45669287070632
 70
   192
  0
VERTEX
  5
DA
330
C6
100
AcDbEntity
  8
0
100
AcDbVertex
100
AcDbPolyFaceMeshVertex
 10
0.0000000000015068
 20
15.51181096583605
 30
-20.82677157595754
 70
   192
  0
VERTEX
  5
DB
330
C6
100
AcDbEntity
  8
0
100
AcDbVertex
100
AcDbPolyFaceMeshVertex
 10
-0.1391942477109609
 20
15.51181096583605
 30
-20.76911738310514
 70
   192
  0
VERTEX
  5
DC
330
C6
100
AcDbEntity
  8
0
100
AcDbVertex
100
AcDbPolyFaceMeshVertex
 10
4.93897623940569
 20
15.51181096583605
 30
-22.5984251126647
 70
   192
  0
VERTEX
  5
DD
330
C6
100
AcDbEntity
  8
0
100
AcDbVertex
100
AcDbPolyFaceMeshVertex
 10
0.1391942477109609
 20
15.51181096583605
 30
-20.76911738310514
 70
   192
  0
VERTEX
  5
DE
330
C6
100
AcDbEntity
  8
0
100
AcDbVertex
100
AcDbPolyFaceMeshVertex
 10
0.1968503929674625
 20
15.51181096583605
 30
-20.62992118299007
 70
   192
  0
VERTEX
  5
DF
330
C6
100
AcDbEntity
  8
0
100
AcDbVertex
100
AcDbPolyFaceMeshVertex
 10
-0.1968503929674625
 20
15.51181096583605
 30
-20.62992118299007
 70
   192
  0
VERTEX
  5
E0
330
C6
100
AcDbEntity
  8
0
100
AcDbVertex
100
AcDbPolyFaceMeshVertex
 10
4.93897623940569
 20
15.51181096583605
 30
0.000000000014086
 70
   192
  0
VERTEX
  5
E1
330
C6
100
AcDbEntity
  8
0
100
AcDbVertex
100
AcDbPolyFaceMeshVertex
 10
0.1968503929674625
 20
15.51181096583605
 30
-11.25984247773886
 70
   192
  0
VERTEX
  5
E2
330
C6
100
AcDbEntity
  8
0
100
AcDbVertex
100
AcDbPolyFaceMeshVertex
 10
0.1391942477109609
 20
15.51181096583605
 30
-11.12064868058269
 70
   192
  0
VERTEX
  5
E3
330
C6
100
AcDbEntity
  8
0
100
AcDbVertex
100
AcDbPolyFaceMeshVertex
 10
0.1391942477109609
 20
15.51181096583605
 30
-11.39903627489503
 70
   192
  0
VERTEX
  5
E4
330
C6
100
AcDbEntity
  8
0
100
AcDbVertex
100
AcDbPolyFaceMeshVertex
 10
0.1391942477109609
 20
15.51181096583605
 30
-20.49072738583391
 70
   192
  0
VERTEX
  5
E5
330
C6
100
AcDbEntity
  8
0
100
AcDbVertex
100
AcDbPolyFaceMeshVertex
 10
2.008455824691424
 20
15.51181096583605
 30
1.069224120835165
 70
   192
  0
VERTEX
  5
E6
330
C6
100
AcDbEntity
  8
0
100
AcDbVertex
100
AcDbPolyFaceMeshVertex
 10
4.83577726470017
 20
15.51181096583605
 30
0.3705681764509805
 70
   192
  0
VERTEX
  5
E7
330
C6
100
AcDbEntity
  8
0
100
AcDbVertex
100
AcDbPolyFaceMeshVertex
 10
4.636735072847386
 20
15.51181096583605
 30
0.6997384022755071
 70
   192
  0
VERTEX
  5
E8
330
C6
100
AcDbEntity
  8
0
100
AcDbVertex
100
AcDbPolyFaceMeshVertex
 10
4.015748016536236
 20
15.51181096583605
 30
1.141732279211282
 70
   192
  0
VERTEX
  5
E9
330
C6
100
AcDbEntity
  8
0
100
AcDbVertex
100
AcDbPolyFaceMeshVertex
 10
4.356511617936575
 20
15.51181096583605
 30
0.9632636207079771
 70
   192
  0
VERTEX
  5
EA
330
C6
100
AcDbEntity
  8
0
100
AcDbVertex
100
AcDbPolyFaceMeshVertex
 10
-3.600963368855758
 20
15.51181096583605
 30
-11.43840755496797
 70
   192
  0
VERTEX
  5
EB
330
C6
100
AcDbEntity
  8
0
100
AcDbVertex
100
AcDbPolyFaceMeshVertex
 10
-4.83577726470017
 20
15.51181096583605
 30
0.3705681764509805
 70
   192
  0
VERTEX
  5
EC
330
C6
100
AcDbEntity
  8
0
100
AcDbVertex
100
AcDbPolyFaceMeshVertex
 10
-4.636735072847386
 20
15.51181096583605
 30
0.6997384022755071
 70
   192
  0
VERTEX
  5
ED
330
C6
100
AcDbEntity
  8
0
100
AcDbVertex
100
AcDbPolyFaceMeshVertex
 10
-4.015748016536236
 20
15.51181096583605
 30
1.141732279211282
 70
   192
  0
VERTEX
  5
EE
330
C6
100
AcDbEntity
  8
0
100
AcDbVertex
100
AcDbPolyFaceMeshVertex
 10
-4.356511617936575
 20
15.51181096583605
 30
0.9632636207079771
 70
   192
  0
VERTEX
  5
EF
330
C6
100
AcDbEntity
  8
0
100
AcDbFaceRecord
 10
0.0
 20
0.0
 30
0.0
 70
   128
 71
    19
 72
    22
 73
    21
  0
VERTEX
  5
F0
330
C6
100
AcDbEntity
  8
0
100
AcDbFaceRecord
 10
0.0
 20
0.0
 30
0.0
 70
   128
 71
    23
 72
    21
 73
    22
  0
VERTEX
  5
F1
330
C6
100
AcDbEntity
  8
0
100
AcDbFaceRecord
 10
0.0
 20
0.0
 30
0.0
 70
   128
 71
    21
 72
    23
 73
    25
  0
VERTEX
  5
F2
330
C6
100
AcDbEntity
  8
0
100
AcDbFaceRecord
 10
0.0
 20
0.0
 30
0.0
 70
   128
 71
    18
 72
    28
 73
    23
  0
VERTEX
  5
F3
330
C6
100
AcDbEntity
  8
0
100
AcDbFaceRecord
 10
0.0
 20
0.0
 30
0.0
 70
   128
 71
    26
 72
    23
 73
    28
  0
VERTEX
  5
F4
330
C6
100
AcDbEntity
  8
0
100
AcDbFaceRecord
 10
0.0
 20
0.0
 30
0.0
 70
   128
 71
    23
 72
    26
 73
    25
  0
VERTEX
  5
F5
330
C6
100
AcDbEntity
  8
0
100
AcDbFaceRecord
 10
0.0
 20
0.0
 30
0.0
 70
   128
 71
    27
 72
    25
 73
    26
  0
VERTEX
  5
F6
330
C6
100
AcDbEntity
  8
0
100
AcDbFaceRecord
 10
0.0
 20
0.0
 30
0.0
 70
   128
 71
    25
 72
    27
 73
    12
  0
VERTEX
  5
F7
330
C6
100
AcDbEntity
  8
0
100
AcDbFaceRecord
 10
0.0
 20
0.0
 30
0.0
 70
   128
 71
    16
 72
    15
 73
    10
  0
VERTEX
  5
F8
330
C6
100
AcDbEntity
  8
0
100
AcDbFaceRecord
 10
0.0
 20
0.0
 30
0.0
 70
   128
 71
    24
 72
    10
 73
    15
  0
VERTEX
  5
F9
330
C6
100
AcDbEntity
  8
0
100
AcDbFaceRecord
 10
0.0
 20
0.0
 30
0.0
 70
   128
 71
    10
 72
    24
 73
     8
  0
VERTEX
  5
FA
330
C6
100
AcDbEntity
  8
0
100
AcDbFaceRecord
 10
0.0
 20
0.0
 30
0.0
 70
   128
 71
    20
 72
     8
 73
    24
  0
VERTEX
  5
FB
330
C6
100
AcDbEntity
  8
0
100
AcDbFaceRecord
 10
0.0
 20
0.0
 30
0.0
 70
   128
 71
     8
 72
    20
 73
    19
  0
VERTEX
  5
FC
330
C6
100
AcDbEntity
  8
0
100
AcDbFaceRecord
 10
0.0
 20
0.0
 30
0.0
 70
   128
 71
    31
 72
    30
 73
    32
  0
VERTEX
  5
FD
330
C6
100
AcDbEntity
  8
0
100
AcDbFaceRecord
 10
0.0
 20
0.0
 30
0.0
 70
   128
 71
    33
 72
    32
 73
    30
  0
VERTEX
  5
FE
330
C6
100
AcDbEntity
  8
0
100
AcDbFaceRecord
 10
0.0
 20
0.0
 30
0.0
 70
   128
 71
    32
 72
    33
 73
    34
  0
VERTEX
  5
FF
330
C6
100
AcDbEntity
  8
0
100
AcDbFaceRecord
 10
0.0
 20
0.0
 30
0.0
 70
   128
 71
    23
 72
    29
 73
    18
  0
VERTEX
  5
100
330
C6
100
AcDbEntity
  8
0
100
AcDbFaceRecord
 10
0.0
 20
0.0
 30
0.0
 70
   128
 71
    16
 72
    18
 73
    29
  0
VERTEX
  5
101
330
C6
100
AcDbEntity
  8
0
100
AcDbFaceRecord
 10
0.0
 20
0.0
 30
0.0
 70
   128
 71
    18
 72
    16
 73
    17
  0
VERTEX
  5
102
330
C6
100
AcDbEntity
  8
0
100
AcDbFaceRecord
 10
0.0
 20
0.0
 30
0.0
 70
   128
 71
    10
 72
    17
 73
    16
  0
VERTEX
  5
103
330
C6
100
AcDbEntity
  8
0
100
AcDbFaceRecord
 10
0.0
 20
0.0
 30
0.0
 70
   128
 71
    17
 72
    10
 73
     1
  0
VERTEX
  5
104
330
C6
100
AcDbEntity
  8
0
100
AcDbFaceRecord
 10
0.0
 20
0.0
 30
0.0
 70
   128
 71
    35
 72
     1
 73
    10
  0
VERTEX
  5
105
330
C6
100
AcDbEntity
  8
0
100
AcDbFaceRecord
 10
0.0
 20
0.0
 30
0.0
 70
   128
 71
    31
 72
    25
 73
    30
  0
VERTEX
  5
106
330
C6
100
AcDbEntity
  8
0
100
AcDbFaceRecord
 10
0.0
 20
0.0
 30
0.0
 70
   128
 71
    12
 72
    30
 73
    25
  0
VERTEX
  5
107
330
C6
100
AcDbEntity
  8
0
100
AcDbFaceRecord
 10
0.0
 20
0.0
 30
0.0
 70
   128
 71
    30
 72
    12
 73
    14
  0
VERTEX
  5
108
330
C6
100
AcDbEntity
  8
0
100
AcDbFaceRecord
 10
0.0
 20
0.0
 30
0.0
 70
   128
 71
    13
 72
    14
 73
    12
  0
VERTEX
  5
109
330
C6
100
AcDbEntity
  8
0
100
AcDbFaceRecord
 10
0.0
 20
0.0
 30
0.0
 70
   128
 71
     6
 72
     5
 73
     8
  0
VERTEX
  5
10A
330
C6
100
AcDbEntity
  8
0
100
AcDbFaceRecord
 10
0.0
 20
0.0
 30
0.0
 70
   128
 71
     9
 72
     8
 73
     5
  0
VERTEX
  5
10B
330
C6
100
AcDbEntity
  8
0
100
AcDbFaceRecord
 10
0.0
 20
0.0
 30
0.0
 70
   128
 71
     8
 72
     9
 73
    10
  0
VERTEX
  5
10C
330
C6
100
AcDbEntity
  8
0
100
AcDbFaceRecord
 10
0.0
 20
0.0
 30
0.0
 70
   128
 71
     6
 72
    36
 73
    13
  0
VERTEX
  5
10D
330
C6
100
AcDbEntity
  8
0
100
AcDbFaceRecord
 10
0.0
 20
0.0
 30
0.0
 70
   128
 71
    37
 72
    13
 73
    36
  0
VERTEX
  5
10E
330
C6
100
AcDbEntity
  8
0
100
AcDbFaceRecord
 10
0.0
 20
0.0
 30
0.0
 70
   128
 71
    13
 72
    37
 73
    38
  0
VERTEX
  5
10F
330
C6
100
AcDbEntity
  8
0
100
AcDbFaceRecord
 10
0.0
 20
0.0
 30
0.0
 70
   128
 71
    39
 72
    38
 73
    37
  0
VERTEX
  5
110
330
C6
100
AcDbEntity
  8
0
100
AcDbFaceRecord
 10
0.0
 20
0.0
 30
0.0
 70
   128
 71
    12
 72
     2
 73
    13
  0
VERTEX
  5
111
330
C6
100
AcDbEntity
  8
0
100
AcDbFaceRecord
 10
0.0
 20
0.0
 30
0.0
 70
   128
 71
    11
 72
    13
 73
     2
  0
VERTEX
  5
112
330
C6
100
AcDbEntity
  8
0
100
AcDbFaceRecord
 10
0.0
 20
0.0
 30
0.0
 70
   128
 71
    13
 72
    11
 73
     6
  0
VERTEX
  5
113
330
C6
100
AcDbEntity
  8
0
100
AcDbFaceRecord
 10
0.0
 20
0.0
 30
0.0
 70
   128
 71
     7
 72
     6
 73
    11
  0
VERTEX
  5
114
330
C6
100
AcDbEntity
  8
0
100
AcDbFaceRecord
 10
0.0
 20
0.0
 30
0.0
 70
   128
 71
     6
 72
     7
 73
     5
  0
VERTEX
  5
115
330
C6
100
AcDbEntity
  8
0
100
AcDbFaceRecord
 10
0.0
 20
0.0
 30
0.0
 70
   128
 71
    12
 72
     3
 73
     2
  0
VERTEX
  5
116
330
C6
100
AcDbEntity
  8
0
100
AcDbFaceRecord
 10
0.0
 20
0.0
 30
0.0
 70
   128
 71
     1
 72
     2
 73
     3
  0
VERTEX
  5
117
330
C6
100
AcDbEntity
  8
0
100
AcDbFaceRecord
 10
0.0
 20
0.0
 30
0.0
 70
   128
 71
     2
 72
     1
 73
     4
  0
VERTEX
  5
118
330
C6
100
AcDbEntity
  8
0
100
AcDbFaceRecord
 10
0.0
 20
0.0
 30
0.0
 70
   128
 71
    35
 72
     4
 73
     1
  0
VERTEX
  5
119
330
C6
100
AcDbEntity
  8
0
100
AcDbFaceRecord
 10
0.0
 20
0.0
 30
0.0
 70
   128
 71
     8
 72
    19
 73
    21
  0
SEQEND
  5
C7
330
C6
100
AcDbEntity
  8
0
  0
POLYLINE
  5
11A
330
1F
100
AcDbEntity
  8
0
 62
     0
100
AcDbPolyFaceMesh
 66
     1
 10
0.0
 20
0.0
 30
0.0
 70
    64
 71
     4
 72
     2
  0
VERTEX
  5
11C
330
11A
100
AcDbEntity
  8
0
100
AcDbVertex
100
AcDbPolyFaceMeshVertex
 10
3.937007859349251
 20
11.92913381382823
 30
-21.65354322642088
 70
   192
  0
VERTEX
  5
11D
330
11A
100
AcDbEntity
  8
0
100
AcDbVertex
100
AcDbPolyFaceMeshVertex
 10
3.937007859349251
 20
13.70078735053539
 30
-21.65354322642088
 70
   192
  0
VERTEX
  5
11E
330
11A
100
AcDbEntity
  8
0
100
AcDbVertex
100
AcDbPolyFaceMeshVertex
 10
-3.937007859349251
 20
13.70078735053539
 30
-21.65354322642088
 70
   192
  0
VERTEX
  5
11F
330
11A
100
AcDbEntity
  8
0
100
AcDbVertex
100
AcDbPolyFaceMeshVertex
 10
-3.937007859349251
 20
11.92913381382823
 30
-21.65354322642088
 70
   192
  0
VERTEX
  5
120
330
11A
100
AcDbEntity
  8
0
100
AcDbFaceRecord
 10
0.0
 20
0.0
 30
0.0
 70
   128
 71
     4
 72
     1
 73
     3
  0
VERTEX
  5
121
330
11A
100
AcDbEntity
  8
0
100
AcDbFaceRecord
 10
0.0
 20
0.0
 30
0.0
 70
   128
 71
     2
 72
     3
 73
     1
  0
SEQEND
  5
11B
330
11A
100
AcDbEntity
  8
0
  0
POLYLINE
  5
122
330
1F
100
AcDbEntity
  8
0
 62
     0
100
AcDbPolyFaceMesh
 66
     1
 10
0.0
 20
0.0
 30
0.0
 70
    64
 71
    57
 72
    67
  0
VERTEX
  5
124
330
122
100
AcDbEntity
  8
0
100
AcDbVertex
100
AcDbPolyFaceMeshVertex
 10
-3.740157466381788
 20
0.0
 30
-1.73228345811367
 70
   192
  0
VERTEX
  5
125
330
122
100
AcDbEntity
  8
0
100
AcDbVertex
100
AcDbPolyFaceMeshVertex
 10
-0.0787244112356089
 20
0.0
 30
-1.653543300926685
 70
   192
  0
VERTEX
  5
126
330
122
100
AcDbEntity
  8
0
100
AcDbVertex
100
AcDbPolyFaceMeshVertex
 10
-3.797813461453359
 20
0.0
 30
-1.593089210402709
 70
   192
  0
VERTEX
  5
127
330
122
100
AcDbEntity
  8
0
100
AcDbVertex
100
AcDbPolyFaceMeshVertex
 10
-2.008455824691424
 20
0.0
 30
1.069224120835165
 70
   192
  0
VERTEX
  5
128
330
122
100
AcDbEntity
  8
0
100
AcDbVertex
100
AcDbPolyFaceMeshVertex
 10
-0.0000000000043147
 20
0.0
 30
1.045050053946106
 70
   192
  0
VERTEX
  5
129
330
122
100
AcDbEntity
  8
0
100
AcDbVertex
100
AcDbPolyFaceMeshVertex
 10
3.797813461453359
 20
0.0
 30
-1.593089210402709
 70
   192
  0
VERTEX
  5
12A
330
122
100
AcDbEntity
  8
0
100
AcDbVertex
100
AcDbPolyFaceMeshVertex
 10
3.740157466381788
 20
0.0
 30
-1.73228345811367
 70
   192
  0
VERTEX
  5
12B
330
122
100
AcDbEntity
  8
0
100
AcDbVertex
100
AcDbPolyFaceMeshVertex
 10
-0.1391942477109609
 20
0.0
 30
-11.39903627489503
 70
   192
  0
VERTEX
  5
12C
330
122
100
AcDbEntity
  8
0
100
AcDbVertex
100
AcDbPolyFaceMeshVertex
 10
-3.937007859349251
 20
0.0
 30
-20.43307079002261
 70
   192
  0
VERTEX
  5
12D
330
122
100
AcDbEntity
  8
0
100
AcDbVertex
100
AcDbPolyFaceMeshVertex
 10
-0.0000000000015068
 20
0.0
 30
-11.45669287070632
 70
   192
  0
VERTEX
  5
12E
330
122
100
AcDbEntity
  8
0
100
AcDbVertex
100
AcDbPolyFaceMeshVertex
 10
-0.0787244112356089
 20
0.0
 30
-20.55119544355648
 70
   192
  0
VERTEX
  5
12F
330
122
100
AcDbEntity
  8
0
100
AcDbVertex
100
AcDbPolyFaceMeshVertex
 10
0.0000000000005023
 20
0.0
 30
-11.0629920847714
 70
   192
  0
VERTEX
  5
130
330
122
100
AcDbEntity
  8
0
100
AcDbVertex
100
AcDbPolyFaceMeshVertex
 10
-3.937007859349251
 20
0.0
 30
-1.929133851081133
 70
   192
  0
VERTEX
  5
131
330
122
100
AcDbEntity
  8
0
100
AcDbVertex
100
AcDbPolyFaceMeshVertex
 10
-0.1391942477109609
 20
0.0
 30
-11.12064868058269
 70
   192
  0
VERTEX
  5
132
330
122
100
AcDbEntity
  8
0
100
AcDbVertex
100
AcDbPolyFaceMeshVertex
 10
4.133858252316712
 20
0.0
 30
-20.62992118299007
 70
   192
  0
VERTEX
  5
133
330
122
100
AcDbEntity
  8
0
100
AcDbVertex
100
AcDbPolyFaceMeshVertex
 10
4.076201956875281
 20
0.0
 30
-1.87147770582463
 70
   192
  0
VERTEX
  5
134
330
122
100
AcDbEntity
  8
0
100
AcDbVertex
100
AcDbPolyFaceMeshVertex
 10
4.076201956875281
 20
0.0
 30
-20.49072738583391
 70
   192
  0
VERTEX
  5
135
330
122
100
AcDbEntity
  8
0
100
AcDbVertex
100
AcDbPolyFaceMeshVertex
 10
4.133858252316712
 20
0.0
 30
-1.73228345811367
 70
   192
  0
VERTEX
  5
136
330
122
100
AcDbEntity
  8
0
100
AcDbVertex
100
AcDbPolyFaceMeshVertex
 10
4.93897623940569
 20
0.0
 30
0.000000000014086
 70
   192
  0
VERTEX
  5
137
330
122
100
AcDbEntity
  8
0
100
AcDbVertex
100
AcDbPolyFaceMeshVertex
 10
4.076201956875281
 20
0.0
 30
-1.593089210402709
 70
   192
  0
VERTEX
  5
138
330
122
100
AcDbEntity
  8
0
100
AcDbVertex
100
AcDbPolyFaceMeshVertex
 10
4.93897623940569
 20
0.0
 30
-22.5984251126647
 70
   192
  0
VERTEX
  5
139
330
122
100
AcDbEntity
  8
0
100
AcDbVertex
100
AcDbPolyFaceMeshVertex
 10
4.076201956875281
 20
0.0
 30
-20.76911738310514
 70
   192
  0
VERTEX
  5
13A
330
122
100
AcDbEntity
  8
0
100
AcDbVertex
100
AcDbPolyFaceMeshVertex
 10
3.797813461453359
 20
0.0
 30
-20.49072738583391
 70
   192
  0
VERTEX
  5
13B
330
122
100
AcDbEntity
  8
0
100
AcDbVertex
100
AcDbPolyFaceMeshVertex
 10
3.740157466381788
 20
0.0
 30
-20.62992118299007
 70
   192
  0
VERTEX
  5
13C
330
122
100
AcDbEntity
  8
0
100
AcDbVertex
100
AcDbPolyFaceMeshVertex
 10
-3.740157466381788
 20
0.0
 30
-20.62992118299007
 70
   192
  0
VERTEX
  5
13D
330
122
100
AcDbEntity
  8
0
100
AcDbVertex
100
AcDbPolyFaceMeshVertex
 10
-3.797813461453359
 20
0.0
 30
-20.49072738583391
 70
   192
  0
VERTEX
  5
13E
330
122
100
AcDbEntity
  8
0
100
AcDbVertex
100
AcDbPolyFaceMeshVertex
 10
-4.076201956875281
 20
0.0
 30
-20.49072738583391
 70
   192
  0
VERTEX
  5
13F
330
122
100
AcDbEntity
  8
0
100
AcDbVertex
100
AcDbPolyFaceMeshVertex
 10
-4.076201956875281
 20
0.0
 30
-1.87147770582463
 70
   192
  0
VERTEX
  5
140
330
122
100
AcDbEntity
  8
0
100
AcDbVertex
100
AcDbPolyFaceMeshVertex
 10
-4.133858252316712
 20
0.0
 30
-20.62992118299007
 70
   192
  0
VERTEX
  5
141
330
122
100
AcDbEntity
  8
0
100
AcDbVertex
100
AcDbPolyFaceMeshVertex
 10
-4.076201956875281
 20
0.0
 30
-1.593089210402709
 70
   192
  0
VERTEX
  5
142
330
122
100
AcDbEntity
  8
0
100
AcDbVertex
100
AcDbPolyFaceMeshVertex
 10
-4.93897623940569
 20
0.0
 30
0.000000000014086
 70
   192
  0
VERTEX
  5
143
330
122
100
AcDbEntity
  8
0
100
AcDbVertex
100
AcDbPolyFaceMeshVertex
 10
-4.133858252316712
 20
0.0
 30
-1.73228345811367
 70
   192
  0
VERTEX
  5
144
330
122
100
AcDbEntity
  8
0
100
AcDbVertex
100
AcDbPolyFaceMeshVertex
 10
-4.93897623940569
 20
0.0
 30
-22.5984251126647
 70
   192
  0
VERTEX
  5
145
330
122
100
AcDbEntity
  8
0
100
AcDbVertex
100
AcDbPolyFaceMeshVertex
 10
-4.076201956875281
 20
0.0
 30
-20.76911738310514
 70
   192
  0
VERTEX
  5
146
330
122
100
AcDbEntity
  8
0
100
AcDbVertex
100
AcDbPolyFaceMeshVertex
 10
-3.937007859349251
 20
0.0
 30
-20.82677157595754
 70
   192
  0
VERTEX
  5
147
330
122
100
AcDbEntity
  8
0
100
AcDbVertex
100
AcDbPolyFaceMeshVertex
 10
-3.797813461453359
 20
0.0
 30
-20.76911738310514
 70
   192
  0
VERTEX
  5
148
330
122
100
AcDbEntity
  8
0
100
AcDbVertex
100
AcDbPolyFaceMeshVertex
 10
3.797813461453359
 20
0.0
 30
-20.76911738310514
 70
   192
  0
VERTEX
  5
149
330
122
100
AcDbEntity
  8
0
100
AcDbVertex
100
AcDbPolyFaceMeshVertex
 10
3.937007859349251
 20
0.0
 30
-20.82677157595754
 70
   192
  0
VERTEX
  5
14A
330
122
100
AcDbEntity
  8
0
100
AcDbVertex
100
AcDbPolyFaceMeshVertex
 10
3.937007859349251
 20
0.0
 30
-1.929133851081133
 70
   192
  0
VERTEX
  5
14B
330
122
100
AcDbEntity
  8
0
100
AcDbVertex
100
AcDbPolyFaceMeshVertex
 10
0.1391942477109609
 20
0.0
 30
-11.12064868058269
 70
   192
  0
VERTEX
  5
14C
330
122
100
AcDbEntity
  8
0
100
AcDbVertex
100
AcDbPolyFaceMeshVertex
 10
0.1968503929674625
 20
0.0
 30
-11.25984247773886
 70
   192
  0
VERTEX
  5
14D
330
122
100
AcDbEntity
  8
0
100
AcDbVertex
100
AcDbPolyFaceMeshVertex
 10
3.797813461453359
 20
0.0
 30
-1.87147770582463
 70
   192
  0
VERTEX
  5
14E
330
122
100
AcDbEntity
  8
0
100
AcDbVertex
100
AcDbPolyFaceMeshVertex
 10
3.937007859349251
 20
0.0
 30
-20.43307079002261
 70
   192
  0
VERTEX
  5
14F
330
122
100
AcDbEntity
  8
0
100
AcDbVertex
100
AcDbPolyFaceMeshVertex
 10
0.1391942477109609
 20
0.0
 30
-11.39903627489503
 70
   192
  0
VERTEX
  5
150
330
122
100
AcDbEntity
  8
0
100
AcDbVertex
100
AcDbPolyFaceMeshVertex
 10
3.937007859349251
 20
0.0
 30
-1.535433065146207
 70
   192
  0
VERTEX
  5
151
330
122
100
AcDbEntity
  8
0
100
AcDbVertex
100
AcDbPolyFaceMeshVertex
 10
2.008455824691424
 20
0.0
 30
1.069224120835165
 70
   192
  0
VERTEX
  5
152
330
122
100
AcDbEntity
  8
0
100
AcDbVertex
100
AcDbPolyFaceMeshVertex
 10
4.83577726470017
 20
0.0
 30
0.3705681764509805
 70
   192
  0
VERTEX
  5
153
330
122
100
AcDbEntity
  8
0
100
AcDbVertex
100
AcDbPolyFaceMeshVertex
 10
4.636735072847386
 20
0.0
 30
0.6997384022755071
 70
   192
  0
VERTEX
  5
154
330
122
100
AcDbEntity
  8
0
100
AcDbVertex
100
AcDbPolyFaceMeshVertex
 10
4.015748016536236
 20
0.0
 30
1.141732279211282
 70
   192
  0
VERTEX
  5
155
330
122
100
AcDbEntity
  8
0
100
AcDbVertex
100
AcDbPolyFaceMeshVertex
 10
4.356511617936575
 20
0.0
 30
0.9632636207079771
 70
   192
  0
VERTEX
  5
156
330
122
100
AcDbEntity
  8
0
100
AcDbVertex
100
AcDbPolyFaceMeshVertex
 10
-0.1968503929674625
 20
0.0
 30
-11.25984247773886
 70
   192
  0
VERTEX
  5
157
330
122
100
AcDbEntity
  8
0
100
AcDbVertex
100
AcDbPolyFaceMeshVertex
 10
-3.797813461453359
 20
0.0
 30
-1.87147770582463
 70
   192
  0
VERTEX
  5
158
330
122
100
AcDbEntity
  8
0
100
AcDbVertex
100
AcDbPolyFaceMeshVertex
 10
-4.356511617936575
 20
0.0
 30
0.9632636207079771
 70
   192
  0
VERTEX
  5
159
330
122
100
AcDbEntity
  8
0
100
AcDbVertex
100
AcDbPolyFaceMeshVertex
 10
-4.015748016536236
 20
0.0
 30
1.141732279211282
 70
   192
  0
VERTEX
  5
15A
330
122
100
AcDbEntity
  8
0
100
AcDbVertex
100
AcDbPolyFaceMeshVertex
 10
-4.636735072847386
 20
0.0
 30
0.6997384022755071
 70
   192
  0
VERTEX
  5
15B
330
122
100
AcDbEntity
  8
0
100
AcDbVertex
100
AcDbPolyFaceMeshVertex
 10
-4.83577726470017
 20
0.0
 30
0.3705681764509805
 70
   192
  0
VERTEX
  5
15C
330
122
100
AcDbEntity
  8
0
100
AcDbVertex
100
AcDbPolyFaceMeshVertex
 10
-3.937007859349251
 20
0.0
 30
-1.535433065146207
 70
   192
  0
VERTEX
  5
15D
330
122
100
AcDbEntity
  8
0
100
AcDbFaceRecord
 10
0.0
 20
0.0
 30
0.0
 70
   128
 71
    11
 72
    10
 73
     9
  0
VERTEX
  5
15E
330
122
100
AcDbEntity
  8
0
100
AcDbFaceRecord
 10
0.0
 20
0.0
 30
0.0
 70
   128
 71
    11
 72
     9
 73
    26
  0
VERTEX
  5
15F
330
122
100
AcDbEntity
  8
0
100
AcDbFaceRecord
 10
0.0
 20
0.0
 30
0.0
 70
   128
 71
    11
 72
    26
 73
    25
  0
VERTEX
  5
160
330
122
100
AcDbEntity
  8
0
100
AcDbFaceRecord
 10
0.0
 20
0.0
 30
0.0
 70
   128
 71
    11
 72
    25
 73
    36
  0
VERTEX
  5
161
330
122
100
AcDbEntity
  8
0
100
AcDbFaceRecord
 10
0.0
 20
0.0
 30
0.0
 70
   128
 71
    11
 72
    36
 73
    33
  0
VERTEX
  5
162
330
122
100
AcDbEntity
  8
0
100
AcDbFaceRecord
 10
0.0
 20
0.0
 30
0.0
 70
   128
 71
    11
 72
    33
 73
    21
  0
VERTEX
  5
163
330
122
100
AcDbEntity
  8
0
100
AcDbFaceRecord
 10
0.0
 20
0.0
 30
0.0
 70
   128
 71
    11
 72
    21
 73
    37
  0
VERTEX
  5
164
330
122
100
AcDbEntity
  8
0
100
AcDbFaceRecord
 10
0.0
 20
0.0
 30
0.0
 70
   128
 71
    11
 72
    37
 73
    24
  0
VERTEX
  5
165
330
122
100
AcDbEntity
  8
0
100
AcDbFaceRecord
 10
0.0
 20
0.0
 30
0.0
 70
   128
 71
    11
 72
    24
 73
    23
  0
VERTEX
  5
166
330
122
100
AcDbEntity
  8
0
100
AcDbFaceRecord
 10
0.0
 20
0.0
 30
0.0
 70
   128
 71
    11
 72
    23
 73
    43
  0
VERTEX
  5
167
330
122
100
AcDbEntity
  8
0
100
AcDbFaceRecord
 10
0.0
 20
0.0
 30
0.0
 70
   128
 71
    11
 72
    43
 73
    10
  0
VERTEX
  5
168
330
122
100
AcDbEntity
  8
0
100
AcDbFaceRecord
 10
0.0
 20
0.0
 30
0.0
 70
   128
 71
     2
 72
     3
 73
     1
  0
VERTEX
  5
169
330
122
100
AcDbEntity
  8
0
100
AcDbFaceRecord
 10
0.0
 20
0.0
 30
0.0
 70
   128
 71
     2
 72
     1
 73
    52
  0
VERTEX
  5
16A
330
122
100
AcDbEntity
  8
0
100
AcDbFaceRecord
 10
0.0
 20
0.0
 30
0.0
 70
   128
 71
     2
 72
    52
 73
    13
  0
VERTEX
  5
16B
330
122
100
AcDbEntity
  8
0
100
AcDbFaceRecord
 10
0.0
 20
0.0
 30
0.0
 70
   128
 71
     2
 72
    13
 73
    12
  0
VERTEX
  5
16C
330
122
100
AcDbEntity
  8
0
100
AcDbFaceRecord
 10
0.0
 20
0.0
 30
0.0
 70
   128
 71
     2
 72
    12
 73
    39
  0
VERTEX
  5
16D
330
122
100
AcDbEntity
  8
0
100
AcDbFaceRecord
 10
0.0
 20
0.0
 30
0.0
 70
   128
 71
     2
 72
    39
 73
    42
  0
VERTEX
  5
16E
330
122
100
AcDbEntity
  8
0
100
AcDbFaceRecord
 10
0.0
 20
0.0
 30
0.0
 70
   128
 71
     2
 72
    42
 73
     7
  0
VERTEX
  5
16F
330
122
100
AcDbEntity
  8
0
100
AcDbFaceRecord
 10
0.0
 20
0.0
 30
0.0
 70
   128
 71
     2
 72
     7
 73
     6
  0
VERTEX
  5
170
330
122
100
AcDbEntity
  8
0
100
AcDbFaceRecord
 10
0.0
 20
0.0
 30
0.0
 70
   128
 71
     2
 72
     6
 73
    46
  0
VERTEX
  5
171
330
122
100
AcDbEntity
  8
0
100
AcDbFaceRecord
 10
0.0
 20
0.0
 30
0.0
 70
   128
 71
     2
 72
    46
 73
     5
  0
VERTEX
  5
172
330
122
100
AcDbEntity
  8
0
100
AcDbFaceRecord
 10
0.0
 20
0.0
 30
0.0
 70
   128
 71
     2
 72
     5
 73
     4
  0
VERTEX
  5
173
330
122
100
AcDbEntity
  8
0
100
AcDbFaceRecord
 10
0.0
 20
0.0
 30
0.0
 70
   128
 71
     2
 72
     4
 73
    53
  0
VERTEX
  5
174
330
122
100
AcDbEntity
  8
0
100
AcDbFaceRecord
 10
0.0
 20
0.0
 30
0.0
 70
   128
 71
     2
 72
    53
 73
    55
  0
VERTEX
  5
175
330
122
100
AcDbEntity
  8
0
100
AcDbFaceRecord
 10
0.0
 20
0.0
 30
0.0
 70
   128
 71
     2
 72
    55
 73
    56
  0
VERTEX
  5
176
330
122
100
AcDbEntity
  8
0
100
AcDbFaceRecord
 10
0.0
 20
0.0
 30
0.0
 70
   128
 71
     2
 72
    56
 73
    31
  0
VERTEX
  5
177
330
122
100
AcDbEntity
  8
0
100
AcDbFaceRecord
 10
0.0
 20
0.0
 30
0.0
 70
   128
 71
     2
 72
    31
 73
     3
  0
VERTEX
  5
178
330
122
100
AcDbEntity
  8
0
100
AcDbFaceRecord
 10
0.0
 20
0.0
 30
0.0
 70
   128
 71
    45
 72
    19
 73
     6
  0
VERTEX
  5
179
330
122
100
AcDbEntity
  8
0
100
AcDbFaceRecord
 10
0.0
 20
0.0
 30
0.0
 70
   128
 71
    46
 72
     6
 73
    19
  0
VERTEX
  5
17A
330
122
100
AcDbEntity
  8
0
100
AcDbFaceRecord
 10
0.0
 20
0.0
 30
0.0
 70
   128
 71
    41
 72
    44
 73
    43
  0
VERTEX
  5
17B
330
122
100
AcDbEntity
  8
0
100
AcDbFaceRecord
 10
0.0
 20
0.0
 30
0.0
 70
   128
 71
    10
 72
    43
 73
    44
  0
VERTEX
  5
17C
330
122
100
AcDbEntity
  8
0
100
AcDbFaceRecord
 10
0.0
 20
0.0
 30
0.0
 70
   128
 71
    40
 72
    41
 73
    39
  0
VERTEX
  5
17D
330
122
100
AcDbEntity
  8
0
100
AcDbFaceRecord
 10
0.0
 20
0.0
 30
0.0
 70
   128
 71
    43
 72
    39
 73
    41
  0
VERTEX
  5
17E
330
122
100
AcDbEntity
  8
0
100
AcDbFaceRecord
 10
0.0
 20
0.0
 30
0.0
 70
   128
 71
    39
 72
    43
 73
    16
  0
VERTEX
  5
17F
330
122
100
AcDbEntity
  8
0
100
AcDbFaceRecord
 10
0.0
 20
0.0
 30
0.0
 70
   128
 71
    19
 72
    47
 73
    46
  0
VERTEX
  5
180
330
122
100
AcDbEntity
  8
0
100
AcDbFaceRecord
 10
0.0
 20
0.0
 30
0.0
 70
   128
 71
    48
 72
    46
 73
    47
  0
VERTEX
  5
181
330
122
100
AcDbEntity
  8
0
100
AcDbFaceRecord
 10
0.0
 20
0.0
 30
0.0
 70
   128
 71
    46
 72
    48
 73
    49
  0
VERTEX
  5
182
330
122
100
AcDbEntity
  8
0
100
AcDbFaceRecord
 10
0.0
 20
0.0
 30
0.0
 70
   128
 71
    50
 72
    49
 73
    48
  0
VERTEX
  5
183
330
122
100
AcDbEntity
  8
0
100
AcDbFaceRecord
 10
0.0
 20
0.0
 30
0.0
 70
   128
 71
    35
 72
    34
 73
    33
  0
VERTEX
  5
184
330
122
100
AcDbEntity
  8
0
100
AcDbFaceRecord
 10
0.0
 20
0.0
 30
0.0
 70
   128
 71
    29
 72
    33
 73
    34
  0
VERTEX
  5
185
330
122
100
AcDbEntity
  8
0
100
AcDbFaceRecord
 10
0.0
 20
0.0
 30
0.0
 70
   128
 71
    33
 72
    29
 73
    31
  0
VERTEX
  5
186
330
122
100
AcDbEntity
  8
0
100
AcDbFaceRecord
 10
0.0
 20
0.0
 30
0.0
 70
   128
 71
    19
 72
    15
 73
    21
  0
VERTEX
  5
187
330
122
100
AcDbEntity
  8
0
100
AcDbFaceRecord
 10
0.0
 20
0.0
 30
0.0
 70
   128
 71
    22
 72
    21
 73
    15
  0
VERTEX
  5
188
330
122
100
AcDbEntity
  8
0
100
AcDbFaceRecord
 10
0.0
 20
0.0
 30
0.0
 70
   128
 71
    21
 72
    22
 73
    38
  0
VERTEX
  5
189
330
122
100
AcDbEntity
  8
0
100
AcDbFaceRecord
 10
0.0
 20
0.0
 30
0.0
 70
   128
 71
     3
 72
    31
 73
    57
  0
VERTEX
  5
18A
330
122
100
AcDbEntity
  8
0
100
AcDbFaceRecord
 10
0.0
 20
0.0
 30
0.0
 70
   128
 71
    30
 72
    57
 73
    31
  0
VERTEX
  5
18B
330
122
100
AcDbEntity
  8
0
100
AcDbFaceRecord
 10
0.0
 20
0.0
 30
0.0
 70
   128
 71
    30
 72
    31
 73
    32
  0
VERTEX
  5
18C
330
122
100
AcDbEntity
  8
0
100
AcDbFaceRecord
 10
0.0
 20
0.0
 30
0.0
 70
   128
 71
    29
 72
    32
 73
    31
  0
VERTEX
  5
18D
330
122
100
AcDbEntity
  8
0
100
AcDbFaceRecord
 10
0.0
 20
0.0
 30
0.0
 70
   128
 71
    32
 72
    29
 73
    28
  0
VERTEX
  5
18E
330
122
100
AcDbEntity
  8
0
100
AcDbFaceRecord
 10
0.0
 20
0.0
 30
0.0
 70
   128
 71
    27
 72
    28
 73
    29
  0
VERTEX
  5
18F
330
122
100
AcDbEntity
  8
0
100
AcDbFaceRecord
 10
0.0
 20
0.0
 30
0.0
 70
   128
 71
    28
 72
    27
 73
     9
  0
VERTEX
  5
190
330
122
100
AcDbEntity
  8
0
100
AcDbFaceRecord
 10
0.0
 20
0.0
 30
0.0
 70
   128
 71
    43
 72
    17
 73
    16
  0
VERTEX
  5
191
330
122
100
AcDbEntity
  8
0
100
AcDbFaceRecord
 10
0.0
 20
0.0
 30
0.0
 70
   128
 71
    15
 72
    16
 73
    17
  0
VERTEX
  5
192
330
122
100
AcDbEntity
  8
0
100
AcDbFaceRecord
 10
0.0
 20
0.0
 30
0.0
 70
   128
 71
    16
 72
    15
 73
    18
  0
VERTEX
  5
193
330
122
100
AcDbEntity
  8
0
100
AcDbFaceRecord
 10
0.0
 20
0.0
 30
0.0
 70
   128
 71
    19
 72
    18
 73
    15
  0
VERTEX
  5
194
330
122
100
AcDbEntity
  8
0
100
AcDbFaceRecord
 10
0.0
 20
0.0
 30
0.0
 70
   128
 71
    18
 72
    19
 73
    20
  0
VERTEX
  5
195
330
122
100
AcDbEntity
  8
0
100
AcDbFaceRecord
 10
0.0
 20
0.0
 30
0.0
 70
   128
 71
    45
 72
    20
 73
    19
  0
VERTEX
  5
196
330
122
100
AcDbEntity
  8
0
100
AcDbFaceRecord
 10
0.0
 20
0.0
 30
0.0
 70
   128
 71
    10
 72
     8
 73
     9
  0
VERTEX
  5
197
330
122
100
AcDbEntity
  8
0
100
AcDbFaceRecord
 10
0.0
 20
0.0
 30
0.0
 70
   128
 71
    51
 72
     9
 73
     8
  0
VERTEX
  5
198
330
122
100
AcDbEntity
  8
0
100
AcDbFaceRecord
 10
0.0
 20
0.0
 30
0.0
 70
   128
 71
     9
 72
    51
 73
    13
  0
VERTEX
  5
199
330
122
100
AcDbEntity
  8
0
100
AcDbFaceRecord
 10
0.0
 20
0.0
 30
0.0
 70
   128
 71
    14
 72
    13
 73
    51
  0
VERTEX
  5
19A
330
122
100
AcDbEntity
  8
0
100
AcDbFaceRecord
 10
0.0
 20
0.0
 30
0.0
 70
   128
 71
    13
 72
    14
 73
    12
  0
VERTEX
  5
19B
330
122
100
AcDbEntity
  8
0
100
AcDbFaceRecord
 10
0.0
 20
0.0
 30
0.0
 70
   128
 71
    35
 72
    33
 73
    36
  0
VERTEX
  5
19C
330
122
100
AcDbEntity
  8
0
100
AcDbFaceRecord
 10
0.0
 20
0.0
 30
0.0
 70
   128
 71
    37
 72
    21
 73
    38
  0
VERTEX
  5
19D
330
122
100
AcDbEntity
  8
0
100
AcDbFaceRecord
 10
0.0
 20
0.0
 30
0.0
 70
   128
 71
    39
 72
    12
 73
    40
  0
VERTEX
  5
19E
330
122
100
AcDbEntity
  8
0
100
AcDbFaceRecord
 10
0.0
 20
0.0
 30
0.0
 70
   128
 71
    28
 72
     9
 73
    13
  0
VERTEX
  5
19F
330
122
100
AcDbEntity
  8
0
100
AcDbFaceRecord
 10
0.0
 20
0.0
 30
0.0
 70
   128
 71
    53
 72
     4
 73
    54
  0
SEQEND
  5
123
330
122
100
AcDbEntity
  8
0
  0
POLYLINE
  5
1A0
330
1F
100
AcDbEntity
  8
0
 62
     0
100
AcDbPolyFaceMesh
 66
     1
 10
0.0
 20
0.0
 30
0.0
 70
    64
 71
    10
 72
     8
  0
VERTEX
  5
1A2
330
1A0
100
AcDbEntity
  8
0
100
AcDbVertex
100
AcDbPolyFaceMeshVertex
 10
-2.008455824691424
 20
1.023622043430804
 30
1.069224120835165
 70
   192
  0
VERTEX
  5
1A3
330
1A0
100
AcDbEntity
  8
0
100
AcDbVertex
100
AcDbPolyFaceMeshVertex
 10
-4.015748016536236
 20
1.023622043430804
 30
1.141732279211282
 70
   192
  0
VERTEX
  5
1A4
330
1A0
100
AcDbEntity
  8
0
100
AcDbVertex
100
AcDbPolyFaceMeshVertex
 10
-4.015748016536236
 20
0.0
 30
1.141732279211282
 70
   192
  0
VERTEX
  5
1A5
330
1A0
100
AcDbEntity
  8
0
100
AcDbVertex
100
AcDbPolyFaceMeshVertex
 10
-2.008455824691424
 20
0.0
 30
1.069224120835165
 70
   192
  0
VERTEX
  5
1A6
330
1A0
100
AcDbEntity
  8
0
100
AcDbVertex
100
AcDbPolyFaceMeshVertex
 10
-0.0000000000043147
 20
1.023622043430804
 30
1.045050053946106
 70
   192
  0
VERTEX
  5
1A7
330
1A0
100
AcDbEntity
  8
0
100
AcDbVertex
100
AcDbPolyFaceMeshVertex
 10
-0.0000000000043147
 20
0.0
 30
1.045050053946106
 70
   192
  0
VERTEX
  5
1A8
330
1A0
100
AcDbEntity
  8
0
100
AcDbVertex
100
AcDbPolyFaceMeshVertex
 10
2.008455824691424
 20
0.0
 30
1.069224120835165
 70
   192
  0
VERTEX
  5
1A9
330
1A0
100
AcDbEntity
  8
0
100
AcDbVertex
100
AcDbPolyFaceMeshVertex
 10
2.008455824691424
 20
1.023622043430804
 30
1.069224120835165
 70
   192
  0
VERTEX
  5
1AA
330
1A0
100
AcDbEntity
  8
0
100
AcDbVertex
100
AcDbPolyFaceMeshVertex
 10
4.015748016536236
 20
1.023622043430804
 30
1.141732279211282
 70
   192
  0
VERTEX
  5
1AB
330
1A0
100
AcDbEntity
  8
0
100
AcDbVertex
100
AcDbPolyFaceMeshVertex
 10
4.015748016536236
 20
0.0
 30
1.141732279211282
 70
   192
  0
VERTEX
  5
1AC
330
1A0
100
AcDbEntity
  8
0
100
AcDbFaceRecord
 10
0.0
 20
0.0
 30
0.0
 70
   128
 71
    10
 72
     9
 73
     7
  0
VERTEX
  5
1AD
330
1A0
100
AcDbEntity
  8
0
100
AcDbFaceRecord
 10
0.0
 20
0.0
 30
0.0
 70
   128
 71
     8
 72
     7
 73
     9
  0
VERTEX
  5
1AE
330
1A0
100
AcDbEntity
  8
0
100
AcDbFaceRecord
 10
0.0
 20
0.0
 30
0.0
 70
   128
 71
     7
 72
     8
 73
     6
  0
VERTEX
  5
1AF
330
1A0
100
AcDbEntity
  8
0
100
AcDbFaceRecord
 10
0.0
 20
0.0
 30
0.0
 70
   128
 71
     5
 72
     6
 73
     8
  0
VERTEX
  5
1B0
330
1A0
100
AcDbEntity
  8
0
100
AcDbFaceRecord
 10
0.0
 20
0.0
 30
0.0
 70
   128
 71
     6
 72
     5
 73
     4
  0
VERTEX
  5
1B1
330
1A0
100
AcDbEntity
  8
0
100
AcDbFaceRecord
 10
0.0
 20
0.0
 30
0.0
 70
   128
 71
     1
 72
     4
 73
     5
  0
VERTEX
  5
1B2
330
1A0
100
AcDbEntity
  8
0
100
AcDbFaceRecord
 10
0.0
 20
0.0
 30
0.0
 70
   128
 71
     4
 72
     1
 73
     3
  0
VERTEX
  5
1B3
330
1A0
100
AcDbEntity
  8
0
100
AcDbFaceRecord
 10
0.0
 20
0.0
 30
0.0
 70
   128
 71
     2
 72
     3
 73
     1
  0
SEQEND
  5
1A1
330
1A0
100
AcDbEntity
  8
0
  0
POLYLINE
  5
1B4
330
1F
100
AcDbEntity
  8
0
 62
     0
100
AcDbPolyFaceMesh
 66
     1
 10
0.0
 20
0.0
 30
0.0
 70
    64
 71
    10
 72
     8
  0
VERTEX
  5
1B6
330
1B4
100
AcDbEntity
  8
0
100
AcDbVertex
100
AcDbPolyFaceMeshVertex
 10
-2.008455824691424
 20
15.51181096583605
 30
1.069224120835165
 70
   192
  0
VERTEX
  5
1B7
330
1B4
100
AcDbEntity
  8
0
100
AcDbVertex
100
AcDbPolyFaceMeshVertex
 10
-4.015748016536236
 20
15.51181096583605
 30
1.141732279211282
 70
   192
  0
VERTEX
  5
1B8
330
1B4
100
AcDbEntity
  8
0
100
AcDbVertex
100
AcDbPolyFaceMeshVertex
 10
-4.015748016536236
 20
14.48818892240524
 30
1.141732279211282
 70
   192
  0
VERTEX
  5
1B9
330
1B4
100
AcDbEntity
  8
0
100
AcDbVertex
100
AcDbPolyFaceMeshVertex
 10
-2.008455824691424
 20
14.48818892240524
 30
1.069224120835165
 70
   192
  0
VERTEX
  5
1BA
330
1B4
100
AcDbEntity
  8
0
100
AcDbVertex
100
AcDbPolyFaceMeshVertex
 10
-0.0000000000043147
 20
15.51181096583605
 30
1.045050053946106
 70
   192
  0
VERTEX
  5
1BB
330
1B4
100
AcDbEntity
  8
0
100
AcDbVertex
100
AcDbPolyFaceMeshVertex
 10
-0.0000000000043147
 20
14.48818892240524
 30
1.045050053946106
 70
   192
  0
VERTEX
  5
1BC
330
1B4
100
AcDbEntity
  8
0
100
AcDbVertex
100
AcDbPolyFaceMeshVertex
 10
2.008455824691424
 20
14.48818892240524
 30
1.069224120835165
 70
   192
  0
VERTEX
  5
1BD
330
1B4
100
AcDbEntity
  8
0
100
AcDbVertex
100
AcDbPolyFaceMeshVertex
 10
2.008455824691424
 20
15.51181096583605
 30
1.069224120835165
 70
   192
  0
VERTEX
  5
1BE
330
1B4
100
AcDbEntity
  8
0
100
AcDbVertex
100
AcDbPolyFaceMeshVertex
 10
4.015748016536236
 20
15.51181096583605
 30
1.141732279211282
 70
   192
  0
VERTEX
  5
1BF
330
1B4
100
AcDbEntity
  8
0
100
AcDbVertex
100
AcDbPolyFaceMeshVertex
 10
4.015748016536236
 20
14.48818892240524
 30
1.141732279211282
 70
   192
  0
VERTEX
  5
1C0
330
1B4
100
AcDbEntity
  8
0
100
AcDbFaceRecord
 10
0.0
 20
0.0
 30
0.0
 70
   128
 71
    10
 72
     9
 73
     7
  0
VERTEX
  5
1C1
330
1B4
100
AcDbEntity
  8
0
100
AcDbFaceRecord
 10
0.0
 20
0.0
 30
0.0
 70
   128
 71
     8
 72
     7
 73
     9
  0
VERTEX
  5
1C2
330
1B4
100
AcDbEntity
  8
0
100
AcDbFaceRecord
 10
0.0
 20
0.0
 30
0.0
 70
   128
 71
     7
 72
     8
 73
     6
  0
VERTEX
  5
1C3
330
1B4
100
AcDbEntity
  8
0
100
AcDbFaceRecord
 10
0.0
 20
0.0
 30
0.0
 70
   128
 71
     5
 72
     6
 73
     8
  0
VERTEX
  5
1C4
330
1B4
100
AcDbEntity
  8
0
100
AcDbFaceRecord
 10
0.0
 20
0.0
 30
0.0
 70
   128
 71
     6
 72
     5
 73
     4
  0
VERTEX
  5
1C5
330
1B4
100
AcDbEntity
  8
0
100
AcDbFaceRecord
 10
0.0
 20
0.0
 30
0.0
 70
   128
 71
     1
 72
     4
 73
     5
  0
VERTEX
  5
1C6
330
1B4
100
AcDbEntity
  8
0
100
AcDbFaceRecord
 10
0.0
 20
0.0
 30
0.0
 70
   128
 71
     4
 72
     1
 73
     3
  0
VERTEX
  5
1C7
330
1B4
100
AcDbEntity
  8
0
100
AcDbFaceRecord
 10
0.0
 20
0.0
 30
0.0
 70
   128
 71
     2
 72
     3
 73
     1
  0
SEQEND
  5
1B5
330
1B4
100
AcDbEntity
  8
0
  0
POLYLINE
  5
1C8
330
1F
100
AcDbEntity
  8
0
 62
     0
100
AcDbPolyFaceMesh
 66
     1
 10
0.0
 20
0.0
 30
0.0
 70
    64
 71
    20
 72
    18
  0
VERTEX
  5
1CA
330
1C8
100
AcDbEntity
  8
0
100
AcDbVertex
100
AcDbPolyFaceMeshVertex
 10
2.751771511129419
 20
2.30708669568962
 30
-22.55905503407121
 70
   192
  0
VERTEX
  5
1CB
330
1C8
100
AcDbEntity
  8
0
100
AcDbVertex
100
AcDbPolyFaceMeshVertex
 10
2.936899970219997
 20
2.38376931931974
 30
-22.55905503407121
 70
   192
  0
VERTEX
  5
1CC
330
1C8
100
AcDbEntity
  8
0
100
AcDbVertex
100
AcDbPolyFaceMeshVertex
 10
2.851962281663844
 20
2.327015785499498
 30
-22.55905503407121
 70
   192
  0
VERTEX
  5
1CD
330
1C8
100
AcDbEntity
  8
0
100
AcDbVertex
100
AcDbPolyFaceMeshVertex
 10
3.013582593850116
 20
2.568897628225385
 30
-22.55905503407121
 70
   192
  0
VERTEX
  5
1CE
330
1C8
100
AcDbEntity
  8
0
100
AcDbVertex
100
AcDbPolyFaceMeshVertex
 10
2.99365365422517
 20
2.468706707506029
 30
-22.55905503407121
 70
   192
  0
VERTEX
  5
1CF
330
1C8
100
AcDbEntity
  8
0
100
AcDbVertex
100
AcDbPolyFaceMeshVertex
 10
3.013582593850116
 20
6.044881602919361
 30
-22.55905503407121
 70
   192
  0
VERTEX
  5
1D0
330
1C8
100
AcDbEntity
  8
0
100
AcDbVertex
100
AcDbPolyFaceMeshVertex
 10
2.751771511129419
 20
6.30669298600992
 30
-22.55905503407121
 70
   192
  0
VERTEX
  5
1D1
330
1C8
100
AcDbEntity
  8
0
100
AcDbVertex
100
AcDbPolyFaceMeshVertex
 10
2.936899970219997
 20
6.230009761640076
 30
-22.55905503407121
 70
   192
  0
VERTEX
  5
1D2
330
1C8
100
AcDbEntity
  8
0
100
AcDbVertex
100
AcDbPolyFaceMeshVertex
 10
2.99365365422517
 20
6.145072974193512
 30
-22.55905503407121
 70
   192
  0
VERTEX
  5
1D3
330
1C8
100
AcDbEntity
  8
0
100
AcDbVertex
100
AcDbPolyFaceMeshVertex
 10
2.851962281663844
 20
6.286763445645249
 30
-22.55905503407121
 70
   192
  0
VERTEX
  5
1D4
330
1C8
100
AcDbEntity
  8
0
100
AcDbVertex
100
AcDbPolyFaceMeshVertex
 10
-2.751771511129419
 20
6.30669298600992
 30
-22.55905503407121
 70
   192
  0
VERTEX
  5
1D5
330
1C8
100
AcDbEntity
  8
0
100
AcDbVertex
100
AcDbPolyFaceMeshVertex
 10
-2.751771511129419
 20
2.30708669568962
 30
-22.55905503407121
 70
   192
  0
VERTEX
  5
1D6
330
1C8
100
AcDbEntity
  8
0
100
AcDbVertex
100
AcDbPolyFaceMeshVertex
 10
-3.013582593850116
 20
6.044881602919361
 30
-22.55905503407121
 70
   192
  0
VERTEX
  5
1D7
330
1C8
100
AcDbEntity
  8
0
100
AcDbVertex
100
AcDbPolyFaceMeshVertex
 10
-2.936899970219997
 20
6.230009761640076
 30
-22.55905503407121
 70
   192
  0
VERTEX
  5
1D8
330
1C8
100
AcDbEntity
  8
0
100
AcDbVertex
100
AcDbPolyFaceMeshVertex
 10
-2.851962281663844
 20
6.286763445645249
 30
-22.55905503407121
 70
   192
  0
VERTEX
  5
1D9
330
1C8
100
AcDbEntity
  8
0
100
AcDbVertex
100
AcDbPolyFaceMeshVertex
 10
-2.99365365422517
 20
6.145072974193512
 30
-22.55905503407121
 70
   192
  0
VERTEX
  5
1DA
330
1C8
100
AcDbEntity
  8
0
100
AcDbVertex
100
AcDbPolyFaceMeshVertex
 10
-3.013582593850116
 20
2.568897628225385
 30
-22.55905503407121
 70
   192
  0
VERTEX
  5
1DB
330
1C8
100
AcDbEntity
  8
0
100
AcDbVertex
100
AcDbPolyFaceMeshVertex
 10
-2.936899970219997
 20
2.38376931931974
 30
-22.55905503407121
 70
   192
  0
VERTEX
  5
1DC
330
1C8
100
AcDbEntity
  8
0
100
AcDbVertex
100
AcDbPolyFaceMeshVertex
 10
-2.99365365422517
 20
2.468706707506029
 30
-22.55905503407121
 70
   192
  0
VERTEX
  5
1DD
330
1C8
100
AcDbEntity
  8
0
100
AcDbVertex
100
AcDbPolyFaceMeshVertex
 10
-2.851962281663844
 20
2.327015785499498
 30
-22.55905503407121
 70
   192
  0
VERTEX
  5
1DE
330
1C8
100
AcDbEntity
  8
0
100
AcDbFaceRecord
 10
0.0
 20
0.0
 30
0.0
 70
   128
 71
    15
 72
    11
 73
    14
  0
VERTEX
  5
1DF
330
1C8
100
AcDbEntity
  8
0
100
AcDbFaceRecord
 10
0.0
 20
0.0
 30
0.0
 70
   128
 71
    13
 72
    14
 73
    11
  0
VERTEX
  5
1E0
330
1C8
100
AcDbEntity
  8
0
100
AcDbFaceRecord
 10
0.0
 20
0.0
 30
0.0
 70
   128
 71
    14
 72
    13
 73
    16
  0
VERTEX
  5
1E1
330
1C8
100
AcDbEntity
  8
0
100
AcDbFaceRecord
 10
0.0
 20
0.0
 30
0.0
 70
   128
 71
     7
 72
     1
 73
    11
  0
VERTEX
  5
1E2
330
1C8
100
AcDbEntity
  8
0
100
AcDbFaceRecord
 10
0.0
 20
0.0
 30
0.0
 70
   128
 71
    12
 72
    11
 73
     1
  0
VERTEX
  5
1E3
330
1C8
100
AcDbEntity
  8
0
100
AcDbFaceRecord
 10
0.0
 20
0.0
 30
0.0
 70
   128
 71
    11
 72
    12
 73
    13
  0
VERTEX
  5
1E4
330
1C8
100
AcDbEntity
  8
0
100
AcDbFaceRecord
 10
0.0
 20
0.0
 30
0.0
 70
   128
 71
    17
 72
    13
 73
    12
  0
VERTEX
  5
1E5
330
1C8
100
AcDbEntity
  8
0
100
AcDbFaceRecord
 10
0.0
 20
0.0
 30
0.0
 70
   128
 71
    19
 72
    17
 73
    18
  0
VERTEX
  5
1E6
330
1C8
100
AcDbEntity
  8
0
100
AcDbFaceRecord
 10
0.0
 20
0.0
 30
0.0
 70
   128
 71
    12
 72
    18
 73
    17
  0
VERTEX
  5
1E7
330
1C8
100
AcDbEntity
  8
0
100
AcDbFaceRecord
 10
0.0
 20
0.0
 30
0.0
 70
   128
 71
    18
 72
    12
 73
    20
  0
VERTEX
  5
1E8
330
1C8
100
AcDbEntity
  8
0
100
AcDbFaceRecord
 10
0.0
 20
0.0
 30
0.0
 70
   128
 71
    10
 72
     8
 73
     7
  0
VERTEX
  5
1E9
330
1C8
100
AcDbEntity
  8
0
100
AcDbFaceRecord
 10
0.0
 20
0.0
 30
0.0
 70
   128
 71
     6
 72
     7
 73
     8
  0
VERTEX
  5
1EA
330
1C8
100
AcDbEntity
  8
0
100
AcDbFaceRecord
 10
0.0
 20
0.0
 30
0.0
 70
   128
 71
     7
 72
     6
 73
     1
  0
VERTEX
  5
1EB
330
1C8
100
AcDbEntity
  8
0
100
AcDbFaceRecord
 10
0.0
 20
0.0
 30
0.0
 70
   128
 71
     4
 72
     1
 73
     6
  0
VERTEX
  5
1EC
330
1C8
100
AcDbEntity
  8
0
100
AcDbFaceRecord
 10
0.0
 20
0.0
 30
0.0
 70
   128
 71
     3
 72
     1
 73
     2
  0
VERTEX
  5
1ED
330
1C8
100
AcDbEntity
  8
0
100
AcDbFaceRecord
 10
0.0
 20
0.0
 30
0.0
 70
   128
 71
     4
 72
     2
 73
     1
  0
VERTEX
  5
1EE
330
1C8
100
AcDbEntity
  8
0
100
AcDbFaceRecord
 10
0.0
 20
0.0
 30
0.0
 70
   128
 71
     2
 72
     4
 73
     5
  0
VERTEX
  5
1EF
330
1C8
100
AcDbEntity
  8
0
100
AcDbFaceRecord
 10
0.0
 20
0.0
 30
0.0
 70
   128
 71
     8
 72
     9
 73
     6
  0
SEQEND
  5
1C9
330
1C8
100
AcDbEntity
  8
0
  0
POLYLINE
  5
1F0
330
1F
100
AcDbEntity
  8
0
 62
     0
100
AcDbPolyFaceMesh
 66
     1
 10
0.0
 20
0.0
 30
0.0
 70
    64
 71
    13
 72
    11
  0
VERTEX
  5
1F2
330
1F0
100
AcDbEntity
  8
0
100
AcDbVertex
100
AcDbPolyFaceMeshVertex
 10
4.015748016536236
 20
1.023622043430804
 30
1.141732279211282
 70
   192
  0
VERTEX
  5
1F3
330
1F0
100
AcDbEntity
  8
0
100
AcDbVertex
100
AcDbPolyFaceMeshVertex
 10
4.636735072847386
 20
1.023622043430804
 30
0.6997384022755071
 70
   192
  0
VERTEX
  5
1F4
330
1F0
100
AcDbEntity
  8
0
100
AcDbVertex
100
AcDbPolyFaceMeshVertex
 10
2.008455824691424
 20
1.023622043430804
 30
1.069224120835165
 70
   192
  0
VERTEX
  5
1F5
330
1F0
100
AcDbEntity
  8
0
100
AcDbVertex
100
AcDbPolyFaceMeshVertex
 10
4.356511617936575
 20
1.023622043430804
 30
0.9632636207079771
 70
   192
  0
VERTEX
  5
1F6
330
1F0
100
AcDbEntity
  8
0
100
AcDbVertex
100
AcDbPolyFaceMeshVertex
 10
4.83577726470017
 20
1.023622043430804
 30
0.3705681764509805
 70
   192
  0
VERTEX
  5
1F7
330
1F0
100
AcDbEntity
  8
0
100
AcDbVertex
100
AcDbPolyFaceMeshVertex
 10
-0.0000000000043147
 20
1.023622043430804
 30
1.045050053946106
 70
   192
  0
VERTEX
  5
1F8
330
1F0
100
AcDbEntity
  8
0
100
AcDbVertex
100
AcDbPolyFaceMeshVertex
 10
4.93897623940569
 20
1.023622043430804
 30
0.000000000014086
 70
   192
  0
VERTEX
  5
1F9
330
1F0
100
AcDbEntity
  8
0
100
AcDbVertex
100
AcDbPolyFaceMeshVertex
 10
-4.93897623940569
 20
1.023622043430804
 30
0.000000000014086
 70
   192
  0
VERTEX
  5
1FA
330
1F0
100
AcDbEntity
  8
0
100
AcDbVertex
100
AcDbPolyFaceMeshVertex
 10
-4.83577726470017
 20
1.023622043430804
 30
0.3705681764509805
 70
   192
  0
VERTEX
  5
1FB
330
1F0
100
AcDbEntity
  8
0
100
AcDbVertex
100
AcDbPolyFaceMeshVertex
 10
-2.008455824691424
 20
1.023622043430804
 30
1.069224120835165
 70
   192
  0
VERTEX
  5
1FC
330
1F0
100
AcDbEntity
  8
0
100
AcDbVertex
100
AcDbPolyFaceMeshVertex
 10
-4.636735072847386
 20
1.023622043430804
 30
0.6997384022755071
 70
   192
  0
VERTEX
  5
1FD
330
1F0
100
AcDbEntity
  8
0
100
AcDbVertex
100
AcDbPolyFaceMeshVertex
 10
-4.015748016536236
 20
1.023622043430804
 30
1.141732279211282
 70
   192
  0
VERTEX
  5
1FE
330
1F0
100
AcDbEntity
  8
0
100
AcDbVertex
100
AcDbPolyFaceMeshVertex
 10
-4.356511617936575
 20
1.023622043430804
 30
0.9632636207079771
 70
   192
  0
VERTEX
  5
1FF
330
1F0
100
AcDbEntity
  8
0
100
AcDbFaceRecord
 10
0.0
 20
0.0
 30
0.0
 70
   128
 71
    13
 72
    12
 73
    11
  0
VERTEX
  5
200
330
1F0
100
AcDbEntity
  8
0
100
AcDbFaceRecord
 10
0.0
 20
0.0
 30
0.0
 70
   128
 71
    10
 72
    11
 73
    12
  0
VERTEX
  5
201
330
1F0
100
AcDbEntity
  8
0
100
AcDbFaceRecord
 10
0.0
 20
0.0
 30
0.0
 70
   128
 71
    11
 72
    10
 73
     9
  0
VERTEX
  5
202
330
1F0
100
AcDbEntity
  8
0
100
AcDbFaceRecord
 10
0.0
 20
0.0
 30
0.0
 70
   128
 71
     6
 72
     9
 73
    10
  0
VERTEX
  5
203
330
1F0
100
AcDbEntity
  8
0
100
AcDbFaceRecord
 10
0.0
 20
0.0
 30
0.0
 70
   128
 71
     9
 72
     6
 73
     8
  0
VERTEX
  5
204
330
1F0
100
AcDbEntity
  8
0
100
AcDbFaceRecord
 10
0.0
 20
0.0
 30
0.0
 70
   128
 71
     1
 72
     2
 73
     3
  0
VERTEX
  5
205
330
1F0
100
AcDbEntity
  8
0
100
AcDbFaceRecord
 10
0.0
 20
0.0
 30
0.0
 70
   128
 71
     5
 72
     3
 73
     2
  0
VERTEX
  5
206
330
1F0
100
AcDbEntity
  8
0
100
AcDbFaceRecord
 10
0.0
 20
0.0
 30
0.0
 70
   128
 71
     3
 72
     5
 73
     6
  0
VERTEX
  5
207
330
1F0
100
AcDbEntity
  8
0
100
AcDbFaceRecord
 10
0.0
 20
0.0
 30
0.0
 70
   128
 71
     7
 72
     6
 73
     5
  0
VERTEX
  5
208
330
1F0
100
AcDbEntity
  8
0
100
AcDbFaceRecord
 10
0.0
 20
0.0
 30
0.0
 70
   128
 71
     6
 72
     7
 73
     8
  0
VERTEX
  5
209
330
1F0
100
AcDbEntity
  8
0
100
AcDbFaceRecord
 10
0.0
 20
0.0
 30
0.0
 70
   128
 71
     1
 72
     4
 73
     2
  0
SEQEND
  5
1F1
330
1F0
100
AcDbEntity
  8
0
  0
POLYLINE
  5
20A
330
1F
100
AcDbEntity
  8
0
 62
     0
100
AcDbPolyFaceMesh
 66
     1
 10
0.0
 20
0.0
 30
0.0
 70
    64
 71
    17
 72
    15
  0
VERTEX
  5
20C
330
20A
100
AcDbEntity
  8
0
100
AcDbVertex
100
AcDbPolyFaceMeshVertex
 10
4.724409431219101
 20
14.48818892240524
 30
0.0393700785934925
 70
   192
  0
VERTEX
  5
20D
330
20A
100
AcDbEntity
  8
0
100
AcDbVertex
100
AcDbPolyFaceMeshVertex
 10
4.724409431219101
 20
14.48818892240524
 30
0.0
 70
   192
  0
VERTEX
  5
20E
330
20A
100
AcDbEntity
  8
0
100
AcDbVertex
100
AcDbPolyFaceMeshVertex
 10
4.93897623940569
 20
14.48818892240524
 30
0.000000000014086
 70
   192
  0
VERTEX
  5
20F
330
20A
100
AcDbEntity
  8
0
100
AcDbVertex
100
AcDbPolyFaceMeshVertex
 10
4.83577726470017
 20
14.48818892240524
 30
0.3705681764509805
 70
   192
  0
VERTEX
  5
210
330
20A
100
AcDbEntity
  8
0
100
AcDbVertex
100
AcDbPolyFaceMeshVertex
 10
2.008455824691424
 20
14.48818892240524
 30
1.069224120835165
 70
   192
  0
VERTEX
  5
211
330
20A
100
AcDbEntity
  8
0
100
AcDbVertex
100
AcDbPolyFaceMeshVertex
 10
4.636735072847386
 20
14.48818892240524
 30
0.6997384022755071
 70
   192
  0
VERTEX
  5
212
330
20A
100
AcDbEntity
  8
0
100
AcDbVertex
100
AcDbPolyFaceMeshVertex
 10
4.015748016536236
 20
14.48818892240524
 30
1.141732279211282
 70
   192
  0
VERTEX
  5
213
330
20A
100
AcDbEntity
  8
0
100
AcDbVertex
100
AcDbPolyFaceMeshVertex
 10
4.356511617936575
 20
14.48818892240524
 30
0.9632636207079771
 70
   192
  0
VERTEX
  5
214
330
20A
100
AcDbEntity
  8
0
100
AcDbVertex
100
AcDbPolyFaceMeshVertex
 10
-0.0000000000043147
 20
14.48818892240524
 30
1.045050053946106
 70
   192
  0
VERTEX
  5
215
330
20A
100
AcDbEntity
  8
0
100
AcDbVertex
100
AcDbPolyFaceMeshVertex
 10
-4.724409431219101
 20
14.48818892240524
 30
0.0393700785934925
 70
   192
  0
VERTEX
  5
216
330
20A
100
AcDbEntity
  8
0
100
AcDbVertex
100
AcDbPolyFaceMeshVertex
 10
-2.008455824691424
 20
14.48818892240524
 30
1.069224120835165
 70
   192
  0
VERTEX
  5
217
330
20A
100
AcDbEntity
  8
0
100
AcDbVertex
100
AcDbPolyFaceMeshVertex
 10
-4.83577726470017
 20
14.48818892240524
 30
0.3705681764509805
 70
   192
  0
VERTEX
  5
218
330
20A
100
AcDbEntity
  8
0
100
AcDbVertex
100
AcDbPolyFaceMeshVertex
 10
-4.93897623940569
 20
14.48818892240524
 30
0.000000000014086
 70
   192
  0
VERTEX
  5
219
330
20A
100
AcDbEntity
  8
0
100
AcDbVertex
100
AcDbPolyFaceMeshVertex
 10
-4.724409431219101
 20
14.48818892240524
 30
0.0
 70
   192
  0
VERTEX
  5
21A
330
20A
100
AcDbEntity
  8
0
100
AcDbVertex
100
AcDbPolyFaceMeshVertex
 10
-4.636735072847386
 20
14.48818892240524
 30
0.6997384022755071
 70
   192
  0
VERTEX
  5
21B
330
20A
100
AcDbEntity
  8
0
100
AcDbVertex
100
AcDbPolyFaceMeshVertex
 10
-4.015748016536236
 20
14.48818892240524
 30
1.141732279211282
 70
   192
  0
VERTEX
  5
21C
330
20A
100
AcDbEntity
  8
0
100
AcDbVertex
100
AcDbPolyFaceMeshVertex
 10
-4.356511617936575
 20
14.48818892240524
 30
0.9632636207079771
 70
   192
  0
VERTEX
  5
21D
330
20A
100
AcDbEntity
  8
0
100
AcDbFaceRecord
 10
0.0
 20
0.0
 30
0.0
 70
   128
 71
    12
 72
    13
 73
    10
  0
VERTEX
  5
21E
330
20A
100
AcDbEntity
  8
0
100
AcDbFaceRecord
 10
0.0
 20
0.0
 30
0.0
 70
   128
 71
    14
 72
    10
 73
    13
  0
VERTEX
  5
21F
330
20A
100
AcDbEntity
  8
0
100
AcDbFaceRecord
 10
0.0
 20
0.0
 30
0.0
 70
   128
 71
    11
 72
    16
 73
    15
  0
VERTEX
  5
220
330
20A
100
AcDbEntity
  8
0
100
AcDbFaceRecord
 10
0.0
 20
0.0
 30
0.0
 70
   128
 71
    17
 72
    15
 73
    16
  0
VERTEX
  5
221
330
20A
100
AcDbEntity
  8
0
100
AcDbFaceRecord
 10
0.0
 20
0.0
 30
0.0
 70
   128
 71
    15
 72
    12
 73
    11
  0
VERTEX
  5
222
330
20A
100
AcDbEntity
  8
0
100
AcDbFaceRecord
 10
0.0
 20
0.0
 30
0.0
 70
   128
 71
    10
 72
    11
 73
    12
  0
VERTEX
  5
223
330
20A
100
AcDbEntity
  8
0
100
AcDbFaceRecord
 10
0.0
 20
0.0
 30
0.0
 70
   128
 71
    11
 72
    10
 73
     9
  0
VERTEX
  5
224
330
20A
100
AcDbEntity
  8
0
100
AcDbFaceRecord
 10
0.0
 20
0.0
 30
0.0
 70
   128
 71
     1
 72
     9
 73
    10
  0
VERTEX
  5
225
330
20A
100
AcDbEntity
  8
0
100
AcDbFaceRecord
 10
0.0
 20
0.0
 30
0.0
 70
   128
 71
     9
 72
     1
 73
     5
  0
VERTEX
  5
226
330
20A
100
AcDbEntity
  8
0
100
AcDbFaceRecord
 10
0.0
 20
0.0
 30
0.0
 70
   128
 71
     8
 72
     7
 73
     6
  0
VERTEX
  5
227
330
20A
100
AcDbEntity
  8
0
100
AcDbFaceRecord
 10
0.0
 20
0.0
 30
0.0
 70
   128
 71
     5
 72
     6
 73
     7
  0
VERTEX
  5
228
330
20A
100
AcDbEntity
  8
0
100
AcDbFaceRecord
 10
0.0
 20
0.0
 30
0.0
 70
   128
 71
     6
 72
     5
 73
     4
  0
VERTEX
  5
229
330
20A
100
AcDbEntity
  8
0
100
AcDbFaceRecord
 10
0.0
 20
0.0
 30
0.0
 70
   128
 71
     1
 72
     4
 73
     5
  0
VERTEX
  5
22A
330
20A
100
AcDbEntity
  8
0
100
AcDbFaceRecord
 10
0.0
 20
0.0
 30
0.0
 70
   128
 71
     4
 72
     1
 73
     3
  0
VERTEX
  5
22B
330
20A
100
AcDbEntity
  8
0
100
AcDbFaceRecord
 10
0.0
 20
0.0
 30
0.0
 70
   128
 71
     2
 72
     3
 73
     1
  0
SEQEND
  5
20B
330
20A
100
AcDbEntity
  8
0
  0
POLYLINE
  5
22C
330
1F
100
AcDbEntity
  8
0
 62
     0
100
AcDbPolyFaceMesh
 66
     1
 10
0.0
 20
0.0
 30
0.0
 70
    64
 71
    10
 72
     8
  0
VERTEX
  5
22E
330
22C
100
AcDbEntity
  8
0
100
AcDbVertex
100
AcDbPolyFaceMeshVertex
 10
4.83577726470017
 20
1.023622043430804
 30
0.3705681764509805
 70
   192
  0
VERTEX
  5
22F
330
22C
100
AcDbEntity
  8
0
100
AcDbVertex
100
AcDbPolyFaceMeshVertex
 10
4.93897623940569
 20
0.0
 30
0.000000000014086
 70
   192
  0
VERTEX
  5
230
330
22C
100
AcDbEntity
  8
0
100
AcDbVertex
100
AcDbPolyFaceMeshVertex
 10
4.93897623940569
 20
1.023622043430804
 30
0.000000000014086
 70
   192
  0
VERTEX
  5
231
330
22C
100
AcDbEntity
  8
0
100
AcDbVertex
100
AcDbPolyFaceMeshVertex
 10
4.83577726470017
 20
0.0
 30
0.3705681764509805
 70
   192
  0
VERTEX
  5
232
330
22C
100
AcDbEntity
  8
0
100
AcDbVertex
100
AcDbPolyFaceMeshVertex
 10
4.636735072847386
 20
1.023622043430804
 30
0.6997384022755071
 70
   192
  0
VERTEX
  5
233
330
22C
100
AcDbEntity
  8
0
100
AcDbVertex
100
AcDbPolyFaceMeshVertex
 10
4.636735072847386
 20
0.0
 30
0.6997384022755071
 70
   192
  0
VERTEX
  5
234
330
22C
100
AcDbEntity
  8
0
100
AcDbVertex
100
AcDbPolyFaceMeshVertex
 10
4.356511617936575
 20
1.023622043430804
 30
0.9632636207079771
 70
   192
  0
VERTEX
  5
235
330
22C
100
AcDbEntity
  8
0
100
AcDbVertex
100
AcDbPolyFaceMeshVertex
 10
4.356511617936575
 20
0.0
 30
0.9632636207079771
 70
   192
  0
VERTEX
  5
236
330
22C
100
AcDbEntity
  8
0
100
AcDbVertex
100
AcDbPolyFaceMeshVertex
 10
4.015748016536236
 20
1.023622043430804
 30
1.141732279211282
 70
   192
  0
VERTEX
  5
237
330
22C
100
AcDbEntity
  8
0
100
AcDbVertex
100
AcDbPolyFaceMeshVertex
 10
4.015748016536236
 20
0.0
 30
1.141732279211282
 70
   192
  0
VERTEX
  5
238
330
22C
100
AcDbEntity
  8
0
100
AcDbFaceRecord
 10
0.0
 20
0.0
 30
0.0
 70
   128
 71
     2
 72
     1
 73
     4
  0
VERTEX
  5
239
330
22C
100
AcDbEntity
  8
0
100
AcDbFaceRecord
 10
0.0
 20
0.0
 30
0.0
 70
   128
 71
     5
 72
     4
 73
     1
  0
VERTEX
  5
23A
330
22C
100
AcDbEntity
  8
0
100
AcDbFaceRecord
 10
0.0
 20
0.0
 30
0.0
 70
   128
 71
     4
 72
     5
 73
     6
  0
VERTEX
  5
23B
330
22C
100
AcDbEntity
  8
0
100
AcDbFaceRecord
 10
0.0
 20
0.0
 30
0.0
 70
   128
 71
     7
 72
     6
 73
     5
  0
VERTEX
  5
23C
330
22C
100
AcDbEntity
  8
0
100
AcDbFaceRecord
 10
0.0
 20
0.0
 30
0.0
 70
   128
 71
     6
 72
     7
 73
     8
  0
VERTEX
  5
23D
330
22C
100
AcDbEntity
  8
0
100
AcDbFaceRecord
 10
0.0
 20
0.0
 30
0.0
 70
   128
 71
     9
 72
     8
 73
     7
  0
VERTEX
  5
23E
330
22C
100
AcDbEntity
  8
0
100
AcDbFaceRecord
 10
0.0
 20
0.0
 30
0.0
 70
   128
 71
     8
 72
     9
 73
    10
  0
VERTEX
  5
23F
330
22C
100
AcDbEntity
  8
0
100
AcDbFaceRecord
 10
0.0
 20
0.0
 30
0.0
 70
   128
 71
     1
 72
     2
 73
     3
  0
SEQEND
  5
22D
330
22C
100
AcDbEntity
  8
0
  0
POLYLINE
  5
240
330
1F
100
AcDbEntity
  8
0
 62
     0
100
AcDbPolyFaceMesh
 66
     1
 10
0.0
 20
0.0
 30
0.0
 70
    64
 71
    10
 72
     8
  0
VERTEX
  5
242
330
240
100
AcDbEntity
  8
0
100
AcDbVertex
100
AcDbPolyFaceMeshVertex
 10
-4.83577726470017
 20
14.48818892240524
 30
0.3705681764509805
 70
   192
  0
VERTEX
  5
243
330
240
100
AcDbEntity
  8
0
100
AcDbVertex
100
AcDbPolyFaceMeshVertex
 10
-4.93897623940569
 20
15.51181096583605
 30
0.000000000014086
 70
   192
  0
VERTEX
  5
244
330
240
100
AcDbEntity
  8
0
100
AcDbVertex
100
AcDbPolyFaceMeshVertex
 10
-4.93897623940569
 20
14.48818892240524
 30
0.000000000014086
 70
   192
  0
VERTEX
  5
245
330
240
100
AcDbEntity
  8
0
100
AcDbVertex
100
AcDbPolyFaceMeshVertex
 10
-4.83577726470017
 20
15.51181096583605
 30
0.3705681764509805
 70
   192
  0
VERTEX
  5
246
330
240
100
AcDbEntity
  8
0
100
AcDbVertex
100
AcDbPolyFaceMeshVertex
 10
-4.636735072847386
 20
14.48818892240524
 30
0.6997384022755071
 70
   192
  0
VERTEX
  5
247
330
240
100
AcDbEntity
  8
0
100
AcDbVertex
100
AcDbPolyFaceMeshVertex
 10
-4.636735072847386
 20
15.51181096583605
 30
0.6997384022755071
 70
   192
  0
VERTEX
  5
248
330
240
100
AcDbEntity
  8
0
100
AcDbVertex
100
AcDbPolyFaceMeshVertex
 10
-4.356511617936575
 20
14.48818892240524
 30
0.9632636207079771
 70
   192
  0
VERTEX
  5
249
330
240
100
AcDbEntity
  8
0
100
AcDbVertex
100
AcDbPolyFaceMeshVertex
 10
-4.356511617936575
 20
15.51181096583605
 30
0.9632636207079771
 70
   192
  0
VERTEX
  5
24A
330
240
100
AcDbEntity
  8
0
100
AcDbVertex
100
AcDbPolyFaceMeshVertex
 10
-4.015748016536236
 20
14.48818892240524
 30
1.141732279211282
 70
   192
  0
VERTEX
  5
24B
330
240
100
AcDbEntity
  8
0
100
AcDbVertex
100
AcDbPolyFaceMeshVertex
 10
-4.015748016536236
 20
15.51181096583605
 30
1.141732279211282
 70
   192
  0
VERTEX
  5
24C
330
240
100
AcDbEntity
  8
0
100
AcDbFaceRecord
 10
0.0
 20
0.0
 30
0.0
 70
   128
 71
     2
 72
     1
 73
     4
  0
VERTEX
  5
24D
330
240
100
AcDbEntity
  8
0
100
AcDbFaceRecord
 10
0.0
 20
0.0
 30
0.0
 70
   128
 71
     5
 72
     4
 73
     1
  0
VERTEX
  5
24E
330
240
100
AcDbEntity
  8
0
100
AcDbFaceRecord
 10
0.0
 20
0.0
 30
0.0
 70
   128
 71
     4
 72
     5
 73
     6
  0
VERTEX
  5
24F
330
240
100
AcDbEntity
  8
0
100
AcDbFaceRecord
 10
0.0
 20
0.0
 30
0.0
 70
   128
 71
     7
 72
     6
 73
     5
  0
VERTEX
  5
250
330
240
100
AcDbEntity
  8
0
100
AcDbFaceRecord
 10
0.0
 20
0.0
 30
0.0
 70
   128
 71
     6
 72
     7
 73
     8
  0
VERTEX
  5
251
330
240
100
AcDbEntity
  8
0
100
AcDbFaceRecord
 10
0.0
 20
0.0
 30
0.0
 70
   128
 71
     9
 72
     8
 73
     7
  0
VERTEX
  5
252
330
240
100
AcDbEntity
  8
0
100
AcDbFaceRecord
 10
0.0
 20
0.0
 30
0.0
 70
   128
 71
     8
 72
     9
 73
    10
  0
VERTEX
  5
253
330
240
100
AcDbEntity
  8
0
100
AcDbFaceRecord
 10
0.0
 20
0.0
 30
0.0
 70
   128
 71
     1
 72
     2
 73
     3
  0
SEQEND
  5
241
330
240
100
AcDbEntity
  8
0
  0
POLYLINE
  5
254
330
1F
100
AcDbEntity
  8
0
 62
     0
100
AcDbPolyFaceMesh
 66
     1
 10
0.0
 20
0.0
 30
0.0
 70
    64
 71
    10
 72
     8
  0
VERTEX
  5
256
330
254
100
AcDbEntity
  8
0
100
AcDbVertex
100
AcDbPolyFaceMeshVertex
 10
-4.83577726470017
 20
0.0
 30
0.3705681764509805
 70
   192
  0
VERTEX
  5
257
330
254
100
AcDbEntity
  8
0
100
AcDbVertex
100
AcDbPolyFaceMeshVertex
 10
-4.93897623940569
 20
1.023622043430804
 30
0.000000000014086
 70
   192
  0
VERTEX
  5
258
330
254
100
AcDbEntity
  8
0
100
AcDbVertex
100
AcDbPolyFaceMeshVertex
 10
-4.93897623940569
 20
0.0
 30
0.000000000014086
 70
   192
  0
VERTEX
  5
259
330
254
100
AcDbEntity
  8
0
100
AcDbVertex
100
AcDbPolyFaceMeshVertex
 10
-4.83577726470017
 20
1.023622043430804
 30
0.3705681764509805
 70
   192
  0
VERTEX
  5
25A
330
254
100
AcDbEntity
  8
0
100
AcDbVertex
100
AcDbPolyFaceMeshVertex
 10
-4.636735072847386
 20
0.0
 30
0.6997384022755071
 70
   192
  0
VERTEX
  5
25B
330
254
100
AcDbEntity
  8
0
100
AcDbVertex
100
AcDbPolyFaceMeshVertex
 10
-4.636735072847386
 20
1.023622043430804
 30
0.6997384022755071
 70
   192
  0
VERTEX
  5
25C
330
254
100
AcDbEntity
  8
0
100
AcDbVertex
100
AcDbPolyFaceMeshVertex
 10
-4.356511617936575
 20
0.0
 30
0.9632636207079771
 70
   192
  0
VERTEX
  5
25D
330
254
100
AcDbEntity
  8
0
100
AcDbVertex
100
AcDbPolyFaceMeshVertex
 10
-4.356511617936575
 20
1.023622043430804
 30
0.9632636207079771
 70
   192
  0
VERTEX
  5
25E
330
254
100
AcDbEntity
  8
0
100
AcDbVertex
100
AcDbPolyFaceMeshVertex
 10
-4.015748016536236
 20
0.0
 30
1.141732279211282
 70
   192
  0
VERTEX
  5
25F
330
254
100
AcDbEntity
  8
0
100
AcDbVertex
100
AcDbPolyFaceMeshVertex
 10
-4.015748016536236
 20
1.023622043430804
 30
1.141732279211282
 70
   192
  0
VERTEX
  5
260
330
254
100
AcDbEntity
  8
0
100
AcDbFaceRecord
 10
0.0
 20
0.0
 30
0.0
 70
   128
 71
     2
 72
     1
 73
     4
  0
VERTEX
  5
261
330
254
100
AcDbEntity
  8
0
100
AcDbFaceRecord
 10
0.0
 20
0.0
 30
0.0
 70
   128
 71
     5
 72
     4
 73
     1
  0
VERTEX
  5
262
330
254
100
AcDbEntity
  8
0
100
AcDbFaceRecord
 10
0.0
 20
0.0
 30
0.0
 70
   128
 71
     4
 72
     5
 73
     6
  0
VERTEX
  5
263
330
254
100
AcDbEntity
  8
0
100
AcDbFaceRecord
 10
0.0
 20
0.0
 30
0.0
 70
   128
 71
     7
 72
     6
 73
     5
  0
VERTEX
  5
264
330
254
100
AcDbEntity
  8
0
100
AcDbFaceRecord
 10
0.0
 20
0.0
 30
0.0
 70
   128
 71
     6
 72
     7
 73
     8
  0
VERTEX
  5
265
330
254
100
AcDbEntity
  8
0
100
AcDbFaceRecord
 10
0.0
 20
0.0
 30
0.0
 70
   128
 71
     9
 72
     8
 73
     7
  0
VERTEX
  5
266
330
254
100
AcDbEntity
  8
0
100
AcDbFaceRecord
 10
0.0
 20
0.0
 30
0.0
 70
   128
 71
     8
 72
     9
 73
    10
  0
VERTEX
  5
267
330
254
100
AcDbEntity
  8
0
100
AcDbFaceRecord
 10
0.0
 20
0.0
 30
0.0
 70
   128
 71
     1
 72
     2
 73
     3
  0
SEQEND
  5
255
330
254
100
AcDbEntity
  8
0
  0
POLYLINE
  5
268
330
1F
100
AcDbEntity
  8
0
 62
     0
100
AcDbPolyFaceMesh
 66
     1
 10
0.0
 20
0.0
 30
0.0
 70
    64
 71
    10
 72
     8
  0
VERTEX
  5
26A
330
268
100
AcDbEntity
  8
0
100
AcDbVertex
100
AcDbPolyFaceMeshVertex
 10
4.83577726470017
 20
15.51181096583605
 30
0.3705681764509805
 70
   192
  0
VERTEX
  5
26B
330
268
100
AcDbEntity
  8
0
100
AcDbVertex
100
AcDbPolyFaceMeshVertex
 10
4.93897623940569
 20
14.48818892240524
 30
0.000000000014086
 70
   192
  0
VERTEX
  5
26C
330
268
100
AcDbEntity
  8
0
100
AcDbVertex
100
AcDbPolyFaceMeshVertex
 10
4.93897623940569
 20
15.51181096583605
 30
0.000000000014086
 70
   192
  0
VERTEX
  5
26D
330
268
100
AcDbEntity
  8
0
100
AcDbVertex
100
AcDbPolyFaceMeshVertex
 10
4.83577726470017
 20
14.48818892240524
 30
0.3705681764509805
 70
   192
  0
VERTEX
  5
26E
330
268
100
AcDbEntity
  8
0
100
AcDbVertex
100
AcDbPolyFaceMeshVertex
 10
4.636735072847386
 20
15.51181096583605
 30
0.6997384022755071
 70
   192
  0
VERTEX
  5
26F
330
268
100
AcDbEntity
  8
0
100
AcDbVertex
100
AcDbPolyFaceMeshVertex
 10
4.636735072847386
 20
14.48818892240524
 30
0.6997384022755071
 70
   192
  0
VERTEX
  5
270
330
268
100
AcDbEntity
  8
0
100
AcDbVertex
100
AcDbPolyFaceMeshVertex
 10
4.356511617936575
 20
15.51181096583605
 30
0.9632636207079771
 70
   192
  0
VERTEX
  5
271
330
268
100
AcDbEntity
  8
0
100
AcDbVertex
100
AcDbPolyFaceMeshVertex
 10
4.356511617936575
 20
14.48818892240524
 30
0.9632636207079771
 70
   192
  0
VERTEX
  5
272
330
268
100
AcDbEntity
  8
0
100
AcDbVertex
100
AcDbPolyFaceMeshVertex
 10
4.015748016536236
 20
15.51181096583605
 30
1.141732279211282
 70
   192
  0
VERTEX
  5
273
330
268
100
AcDbEntity
  8
0
100
AcDbVertex
100
AcDbPolyFaceMeshVertex
 10
4.015748016536236
 20
14.48818892240524
 30
1.141732279211282
 70
   192
  0
VERTEX
  5
274
330
268
100
AcDbEntity
  8
0
100
AcDbFaceRecord
 10
0.0
 20
0.0
 30
0.0
 70
   128
 71
     2
 72
     1
 73
     4
  0
VERTEX
  5
275
330
268
100
AcDbEntity
  8
0
100
AcDbFaceRecord
 10
0.0
 20
0.0
 30
0.0
 70
   128
 71
     5
 72
     4
 73
     1
  0
VERTEX
  5
276
330
268
100
AcDbEntity
  8
0
100
AcDbFaceRecord
 10
0.0
 20
0.0
 30
0.0
 70
   128
 71
     4
 72
     5
 73
     6
  0
VERTEX
  5
277
330
268
100
AcDbEntity
  8
0
100
AcDbFaceRecord
 10
0.0
 20
0.0
 30
0.0
 70
   128
 71
     7
 72
     6
 73
     5
  0
VERTEX
  5
278
330
268
100
AcDbEntity
  8
0
100
AcDbFaceRecord
 10
0.0
 20
0.0
 30
0.0
 70
   128
 71
     6
 72
     7
 73
     8
  0
VERTEX
  5
279
330
268
100
AcDbEntity
  8
0
100
AcDbFaceRecord
 10
0.0
 20
0.0
 30
0.0
 70
   128
 71
     9
 72
     8
 73
     7
  0
VERTEX
  5
27A
330
268
100
AcDbEntity
  8
0
100
AcDbFaceRecord
 10
0.0
 20
0.0
 30
0.0
 70
   128
 71
     8
 72
     9
 73
    10
  0
VERTEX
  5
27B
330
268
100
AcDbEntity
  8
0
100
AcDbFaceRecord
 10
0.0
 20
0.0
 30
0.0
 70
   128
 71
     1
 72
     2
 73
     3
  0
SEQEND
  5
269
330
268
100
AcDbEntity
  8
0
  0
POLYLINE
  5
27C
330
1F
100
AcDbEntity
  8
0
 62
     0
100
AcDbPolyFaceMesh
 66
     1
 10
0.0
 20
0.0
 30
0.0
 70
    64
 71
     4
 72
     2
  0
VERTEX
  5
27E
330
27C
100
AcDbEntity
  8
0
100
AcDbVertex
100
AcDbPolyFaceMeshVertex
 10
4.724409431219101
 20
9.173228312283754
 30
0.0
 70
   192
  0
VERTEX
  5
27F
330
27C
100
AcDbEntity
  8
0
100
AcDbVertex
100
AcDbPolyFaceMeshVertex
 10
-4.724409431219101
 20
9.173228312283754
 30
0.0393700785934925
 70
   192
  0
VERTEX
  5
280
330
27C
100
AcDbEntity
  8
0
100
AcDbVertex
100
AcDbPolyFaceMeshVertex
 10
-4.724409431219101
 20
9.173228312283754
 30
0.0
 70
   192
  0
VERTEX
  5
281
330
27C
100
AcDbEntity
  8
0
100
AcDbVertex
100
AcDbPolyFaceMeshVertex
 10
4.724409431219101
 20
9.173228312283754
 30
0.0393700785934925
 70
   192
  0
VERTEX
  5
282
330
27C
100
AcDbEntity
  8
0
100
AcDbFaceRecord
 10
0.0
 20
0.0
 30
0.0
 70
   128
 71
     4
 72
     2
 73
     1
  0
VERTEX
  5
283
330
27C
100
AcDbEntity
  8
0
100
AcDbFaceRecord
 10
0.0
 20
0.0
 30
0.0
 70
   128
 71
     3
 72
     1
 73
     2
  0
SEQEND
  5
27D
330
27C
100
AcDbEntity
  8
0
  0
POLYLINE
  5
284
330
1F
100
AcDbEntity
  8
0
 62
     0
100
AcDbPolyFaceMesh
 66
     1
 10
0.0
 20
0.0
 30
0.0
 70
    64
 71
     4
 72
     2
  0
VERTEX
  5
286
330
284
100
AcDbEntity
  8
0
100
AcDbVertex
100
AcDbPolyFaceMeshVertex
 10
-3.937007859349251
 20
9.960629283413881
 30
0.0000000000065562
 70
   192
  0
VERTEX
  5
287
330
284
100
AcDbEntity
  8
0
100
AcDbVertex
100
AcDbPolyFaceMeshVertex
 10
3.937007859349251
 20
9.960629283413881
 30
0.0393700785934925
 70
   192
  0
VERTEX
  5
288
330
284
100
AcDbEntity
  8
0
100
AcDbVertex
100
AcDbPolyFaceMeshVertex
 10
3.937007859349251
 20
9.960629283413881
 30
0.0000000000065562
 70
   192
  0
VERTEX
  5
289
330
284
100
AcDbEntity
  8
0
100
AcDbVertex
100
AcDbPolyFaceMeshVertex
 10
-3.937007859349251
 20
9.960629283413881
 30
0.0393700785934925
 70
   192
  0
VERTEX
  5
28A
330
284
100
AcDbEntity
  8
0
100
AcDbFaceRecord
 10
0.0
 20
0.0
 30
0.0
 70
   128
 71
     4
 72
     2
 73
     1
  0
VERTEX
  5
28B
330
284
100
AcDbEntity
  8
0
100
AcDbFaceRecord
 10
0.0
 20
0.0
 30
0.0
 70
   128
 71
     3
 72
     1
 73
     2
  0
SEQEND
  5
285
330
284
100
AcDbEntity
  8
0
  0
POLYLINE
  5
28C
330
1F
100
AcDbEntity
  8
0
 62
     0
100
AcDbPolyFaceMesh
 66
     1
 10
0.0
 20
0.0
 30
0.0
 70
    64
 71
     4
 72
     2
  0
VERTEX
  5
28E
330
28C
100
AcDbEntity
  8
0
100
AcDbVertex
100
AcDbPolyFaceMeshVertex
 10
2.751771511129419
 20
6.30669298600992
 30
-22.55905503407121
 70
   192
  0
VERTEX
  5
28F
330
28C
100
AcDbEntity
  8
0
100
AcDbVertex
100
AcDbPolyFaceMeshVertex
 10
-2.751771511129419
 20
6.30669298600992
 30
-22.55905503407121
 70
   192
  0
VERTEX
  5
290
330
28C
100
AcDbEntity
  8
0
100
AcDbVertex
100
AcDbPolyFaceMeshVertex
 10
-2.751771511129419
 20
6.30669298600992
 30
-22.5984251126647
 70
   192
  0
VERTEX
  5
291
330
28C
100
AcDbEntity
  8
0
100
AcDbVertex
100
AcDbPolyFaceMeshVertex
 10
2.751771511129419
 20
6.30669298600992
 30
-22.5984251126647
 70
   192
  0
VERTEX
  5
292
330
28C
100
AcDbEntity
  8
0
100
AcDbFaceRecord
 10
0.0
 20
0.0
 30
0.0
 70
   128
 71
     4
 72
     1
 73
     3
  0
VERTEX
  5
293
330
28C
100
AcDbEntity
  8
0
100
AcDbFaceRecord
 10
0.0
 20
0.0
 30
0.0
 70
   128
 71
     2
 72
     3
 73
     1
  0
SEQEND
  5
28D
330
28C
100
AcDbEntity
  8
0
  0
POLYLINE
  5
294
330
1F
100
AcDbEntity
  8
0
 62
     0
100
AcDbPolyFaceMesh
 66
     1
 10
0.0
 20
0.0
 30
0.0
 70
    64
 71
     4
 72
     2
  0
VERTEX
  5
296
330
294
100
AcDbEntity
  8
0
100
AcDbVertex
100
AcDbPolyFaceMeshVertex
 10
2.751771511129419
 20
2.30708669568962
 30
-22.5984251126647
 70
   192
  0
VERTEX
  5
297
330
294
100
AcDbEntity
  8
0
100
AcDbVertex
100
AcDbPolyFaceMeshVertex
 10
-2.751771511129419
 20
2.30708669568962
 30
-22.5984251126647
 70
   192
  0
VERTEX
  5
298
330
294
100
AcDbEntity
  8
0
100
AcDbVertex
100
AcDbPolyFaceMeshVertex
 10
-2.751771511129419
 20
2.30708669568962
 30
-22.55905503407121
 70
   192
  0
VERTEX
  5
299
330
294
100
AcDbEntity
  8
0
100
AcDbVertex
100
AcDbPolyFaceMeshVertex
 10
2.751771511129419
 20
2.30708669568962
 30
-22.55905503407121
 70
   192
  0
VERTEX
  5
29A
330
294
100
AcDbEntity
  8
0
100
AcDbFaceRecord
 10
0.0
 20
0.0
 30
0.0
 70
   128
 71
     4
 72
     1
 73
     3
  0
VERTEX
  5
29B
330
294
100
AcDbEntity
  8
0
100
AcDbFaceRecord
 10
0.0
 20
0.0
 30
0.0
 70
   128
 71
     2
 72
     3
 73
     1
  0
SEQEND
  5
295
330
294
100
AcDbEntity
  8
0
  0
POLYLINE
  5
29C
330
1F
100
AcDbEntity
  8
0
 62
     0
100
AcDbPolyFaceMesh
 66
     1
 10
0.0
 20
0.0
 30
0.0
 70
    64
 71
     4
 72
     2
  0
VERTEX
  5
29E
330
29C
100
AcDbEntity
  8
0
100
AcDbVertex
100
AcDbPolyFaceMeshVertex
 10
4.724409431219101
 20
14.48818892240524
 30
0.0
 70
   192
  0
VERTEX
  5
29F
330
29C
100
AcDbEntity
  8
0
100
AcDbVertex
100
AcDbPolyFaceMeshVertex
 10
4.724409431219101
 20
9.173228312283754
 30
0.0393700785934925
 70
   192
  0
VERTEX
  5
2A0
330
29C
100
AcDbEntity
  8
0
100
AcDbVertex
100
AcDbPolyFaceMeshVertex
 10
4.724409431219101
 20
9.173228312283754
 30
0.0
 70
   192
  0
VERTEX
  5
2A1
330
29C
100
AcDbEntity
  8
0
100
AcDbVertex
100
AcDbPolyFaceMeshVertex
 10
4.724409431219101
 20
14.48818892240524
 30
0.0393700785934925
 70
   192
  0
VERTEX
  5
2A2
330
29C
100
AcDbEntity
  8
0
100
AcDbFaceRecord
 10
0.0
 20
0.0
 30
0.0
 70
   128
 71
     4
 72
     2
 73
     1
  0
VERTEX
  5
2A3
330
29C
100
AcDbEntity
  8
0
100
AcDbFaceRecord
 10
0.0
 20
0.0
 30
0.0
 70
   128
 71
     3
 72
     1
 73
     2
  0
SEQEND
  5
29D
330
29C
100
AcDbEntity
  8
0
  0
POLYLINE
  5
2A4
330
1F
100
AcDbEntity
  8
0
 62
     0
100
AcDbPolyFaceMesh
 66
     1
 10
0.0
 20
0.0
 30
0.0
 70
    64
 71
     4
 72
     2
  0
VERTEX
  5
2A6
330
2A4
100
AcDbEntity
  8
0
100
AcDbVertex
100
AcDbPolyFaceMeshVertex
 10
-4.724409431219101
 20
9.173228312283754
 30
0.0
 70
   192
  0
VERTEX
  5
2A7
330
2A4
100
AcDbEntity
  8
0
100
AcDbVertex
100
AcDbPolyFaceMeshVertex
 10
-4.724409431219101
 20
14.48818892240524
 30
0.0393700785934925
 70
   192
  0
VERTEX
  5
2A8
330
2A4
100
AcDbEntity
  8
0
100
AcDbVertex
100
AcDbPolyFaceMeshVertex
 10
-4.724409431219101
 20
14.48818892240524
 30
0.0
 70
   192
  0
VERTEX
  5
2A9
330
2A4
100
AcDbEntity
  8
0
100
AcDbVertex
100
AcDbPolyFaceMeshVertex
 10
-4.724409431219101
 20
9.173228312283754
 30
0.0393700785934925
 70
   192
  0
VERTEX
  5
2AA
330
2A4
100
AcDbEntity
  8
0
100
AcDbFaceRecord
 10
0.0
 20
0.0
 30
0.0
 70
   128
 71
     4
 72
     2
 73
     1
  0
VERTEX
  5
2AB
330
2A4
100
AcDbEntity
  8
0
100
AcDbFaceRecord
 10
0.0
 20
0.0
 30
0.0
 70
   128
 71
     3
 72
     1
 73
     2
  0
SEQEND
  5
2A5
330
2A4
100
AcDbEntity
  8
0
  0
POLYLINE
  5
2AC
330
1F
100
AcDbEntity
  8
0
 62
     0
100
AcDbPolyFaceMesh
 66
     1
 10
0.0
 20
0.0
 30
0.0
 70
    64
 71
     4
 72
     2
  0
VERTEX
  5
2AE
330
2AC
100
AcDbEntity
  8
0
100
AcDbVertex
100
AcDbPolyFaceMeshVertex
 10
-3.013582593850116
 20
6.044881602919361
 30
-22.55905503407121
 70
   192
  0
VERTEX
  5
2AF
330
2AC
100
AcDbEntity
  8
0
100
AcDbVertex
100
AcDbPolyFaceMeshVertex
 10
-3.013582593850116
 20
2.568897628225385
 30
-22.55905503407121
 70
   192
  0
VERTEX
  5
2B0
330
2AC
100
AcDbEntity
  8
0
100
AcDbVertex
100
AcDbPolyFaceMeshVertex
 10
-3.013582593850116
 20
2.568897628225385
 30
-22.5984251126647
 70
   192
  0
VERTEX
  5
2B1
330
2AC
100
AcDbEntity
  8
0
100
AcDbVertex
100
AcDbPolyFaceMeshVertex
 10
-3.013582593850116
 20
6.044881602919361
 30
-22.5984251126647
 70
   192
  0
VERTEX
  5
2B2
330
2AC
100
AcDbEntity
  8
0
100
AcDbFaceRecord
 10
0.0
 20
0.0
 30
0.0
 70
   128
 71
     4
 72
     1
 73
     3
  0
VERTEX
  5
2B3
330
2AC
100
AcDbEntity
  8
0
100
AcDbFaceRecord
 10
0.0
 20
0.0
 30
0.0
 70
   128
 71
     2
 72
     3
 73
     1
  0
SEQEND
  5
2AD
330
2AC
100
AcDbEntity
  8
0
  0
POLYLINE
  5
2B4
330
1F
100
AcDbEntity
  8
0
 62
     0
100
AcDbPolyFaceMesh
 66
     1
 10
0.0
 20
0.0
 30
0.0
 70
    64
 71
     4
 72
     2
  0
VERTEX
  5
2B6
330
2B4
100
AcDbEntity
  8
0
100
AcDbVertex
100
AcDbPolyFaceMeshVertex
 10
3.013582593850116
 20
2.568897628225385
 30
-22.55905503407121
 70
   192
  0
VERTEX
  5
2B7
330
2B4
100
AcDbEntity
  8
0
100
AcDbVertex
100
AcDbPolyFaceMeshVertex
 10
3.013582593850116
 20
6.044881602919361
 30
-22.55905503407121
 70
   192
  0
VERTEX
  5
2B8
330
2B4
100
AcDbEntity
  8
0
100
AcDbVertex
100
AcDbPolyFaceMeshVertex
 10
3.013582593850116
 20
6.044881602919361
 30
-22.5984251126647
 70
   192
  0
VERTEX
  5
2B9
330
2B4
100
AcDbEntity
  8
0
100
AcDbVertex
100
AcDbPolyFaceMeshVertex
 10
3.013582593850116
 20
2.568897628225385
 30
-22.5984251126647
 70
   192
  0
VERTEX
  5
2BA
330
2B4
100
AcDbEntity
  8
0
100
AcDbFaceRecord
 10
0.0
 20
0.0
 30
0.0
 70
   128
 71
     4
 72
     1
 73
     3
  0
VERTEX
  5
2BB
330
2B4
100
AcDbEntity
  8
0
100
AcDbFaceRecord
 10
0.0
 20
0.0
 30
0.0
 70
   128
 71
     2
 72
     3
 73
     1
  0
SEQEND
  5
2B5
330
2B4
100
AcDbEntity
  8
0
  0
POLYLINE
  5
2BC
330
1F
100
AcDbEntity
  8
0
 62
     0
100
AcDbPolyFaceMesh
 66
     1
 10
0.0
 20
0.0
 30
0.0
 70
    64
 71
     8
 72
     6
  0
VERTEX
  5
2BE
330
2BC
100
AcDbEntity
  8
0
100
AcDbVertex
100
AcDbPolyFaceMeshVertex
 10
-0.1968503929674625
 20
0.0393700785934925
 30
-11.25984247773886
 70
   192
  0
VERTEX
  5
2BF
330
2BC
100
AcDbEntity
  8
0
100
AcDbVertex
100
AcDbPolyFaceMeshVertex
 10
-0.1391942477109609
 20
0.0393700785934925
 30
-11.39903627489503
 70
   192
  0
VERTEX
  5
2C0
330
2BC
100
AcDbEntity
  8
0
100
AcDbVertex
100
AcDbPolyFaceMeshVertex
 10
-0.0000000000015068
 20
0.0393700785934925
 30
-11.45669287070632
 70
   192
  0
VERTEX
  5
2C1
330
2BC
100
AcDbEntity
  8
0
100
AcDbVertex
100
AcDbPolyFaceMeshVertex
 10
0.0000000000005023
 20
0.0393700785934925
 30
-11.0629920847714
 70
   192
  0
VERTEX
  5
2C2
330
2BC
100
AcDbEntity
  8
0
100
AcDbVertex
100
AcDbPolyFaceMeshVertex
 10
-0.1391942477109609
 20
0.0393700785934925
 30
-11.12064868058269
 70
   192
  0
VERTEX
  5
2C3
330
2BC
100
AcDbEntity
  8
0
100
AcDbVertex
100
AcDbPolyFaceMeshVertex
 10
0.1968503929674625
 20
0.0393700785934925
 30
-11.25984247773886
 70
   192
  0
VERTEX
  5
2C4
330
2BC
100
AcDbEntity
  8
0
100
AcDbVertex
100
AcDbPolyFaceMeshVertex
 10
0.1391942477109609
 20
0.0393700785934925
 30
-11.39903627489503
 70
   192
  0
VERTEX
  5
2C5
330
2BC
100
AcDbEntity
  8
0
100
AcDbVertex
100
AcDbPolyFaceMeshVertex
 10
0.1391942477109609
 20
0.0393700785934925
 30
-11.12064868058269
 70
   192
  0
VERTEX
  5
2C6
330
2BC
100
AcDbEntity
  8
0
100
AcDbFaceRecord
 10
0.0
 20
0.0
 30
0.0
 70
   128
 71
     8
 72
     4
 73
     6
  0
VERTEX
  5
2C7
330
2BC
100
AcDbEntity
  8
0
100
AcDbFaceRecord
 10
0.0
 20
0.0
 30
0.0
 70
   128
 71
     3
 72
     6
 73
     4
  0
VERTEX
  5
2C8
330
2BC
100
AcDbEntity
  8
0
100
AcDbFaceRecord
 10
0.0
 20
0.0
 30
0.0
 70
   128
 71
     6
 72
     3
 73
     7
  0
VERTEX
  5
2C9
330
2BC
100
AcDbEntity
  8
0
100
AcDbFaceRecord
 10
0.0
 20
0.0
 30
0.0
 70
   128
 71
     2
 72
     3
 73
     1
  0
VERTEX
  5
2CA
330
2BC
100
AcDbEntity
  8
0
100
AcDbFaceRecord
 10
0.0
 20
0.0
 30
0.0
 70
   128
 71
     4
 72
     1
 73
     3
  0
VERTEX
  5
2CB
330
2BC
100
AcDbEntity
  8
0
100
AcDbFaceRecord
 10
0.0
 20
0.0
 30
0.0
 70
   128
 71
     1
 72
     4
 73
     5
  0
SEQEND
  5
2BD
330
2BC
100
AcDbEntity
  8
0
  0
POLYLINE
  5
2CC
330
1F
100
AcDbEntity
  8
0
 62
     0
100
AcDbPolyFaceMesh
 66
     1
 10
0.0
 20
0.0
 30
0.0
 70
    64
 71
     8
 72
     6
  0
VERTEX
  5
2CE
330
2CC
100
AcDbEntity
  8
0
100
AcDbVertex
100
AcDbPolyFaceMeshVertex
 10
0.1968503929674625
 20
15.47244088724256
 30
-20.62992118299007
 70
   192
  0
VERTEX
  5
2CF
330
2CC
100
AcDbEntity
  8
0
100
AcDbVertex
100
AcDbPolyFaceMeshVertex
 10
0.1391942477109609
 20
15.47244088724256
 30
-20.76911738310514
 70
   192
  0
VERTEX
  5
2D0
330
2CC
100
AcDbEntity
  8
0
100
AcDbVertex
100
AcDbPolyFaceMeshVertex
 10
0.0000000000015068
 20
15.47244088724256
 30
-20.82677157595754
 70
   192
  0
VERTEX
  5
2D1
330
2CC
100
AcDbEntity
  8
0
100
AcDbVertex
100
AcDbPolyFaceMeshVertex
 10
-0.0000000000005023
 20
15.47244088724256
 30
-20.43307079002261
 70
   192
  0
VERTEX
  5
2D2
330
2CC
100
AcDbEntity
  8
0
100
AcDbVertex
100
AcDbPolyFaceMeshVertex
 10
0.1391942477109609
 20
15.47244088724256
 30
-20.49072738583391
 70
   192
  0
VERTEX
  5
2D3
330
2CC
100
AcDbEntity
  8
0
100
AcDbVertex
100
AcDbPolyFaceMeshVertex
 10
-0.1968503929674625
 20
15.47244088724256
 30
-20.62992118299007
 70
   192
  0
VERTEX
  5
2D4
330
2CC
100
AcDbEntity
  8
0
100
AcDbVertex
100
AcDbPolyFaceMeshVertex
 10
-0.1391942477109609
 20
15.47244088724256
 30
-20.76911738310514
 70
   192
  0
VERTEX
  5
2D5
330
2CC
100
AcDbEntity
  8
0
100
AcDbVertex
100
AcDbPolyFaceMeshVertex
 10
-0.1391942477109609
 20
15.47244088724256
 30
-20.49072738583391
 70
   192
  0
VERTEX
  5
2D6
330
2CC
100
AcDbEntity
  8
0
100
AcDbFaceRecord
 10
0.0
 20
0.0
 30
0.0
 70
   128
 71
     8
 72
     4
 73
     6
  0
VERTEX
  5
2D7
330
2CC
100
AcDbEntity
  8
0
100
AcDbFaceRecord
 10
0.0
 20
0.0
 30
0.0
 70
   128
 71
     3
 72
     6
 73
     4
  0
VERTEX
  5
2D8
330
2CC
100
AcDbEntity
  8
0
100
AcDbFaceRecord
 10
0.0
 20
0.0
 30
0.0
 70
   128
 71
     6
 72
     3
 73
     7
  0
VERTEX
  5
2D9
330
2CC
100
AcDbEntity
  8
0
100
AcDbFaceRecord
 10
0.0
 20
0.0
 30
0.0
 70
   128
 71
     2
 72
     3
 73
     1
  0
VERTEX
  5
2DA
330
2CC
100
AcDbEntity
  8
0
100
AcDbFaceRecord
 10
0.0
 20
0.0
 30
0.0
 70
   128
 71
     4
 72
     1
 73
     3
  0
VERTEX
  5
2DB
330
2CC
100
AcDbEntity
  8
0
100
AcDbFaceRecord
 10
0.0
 20
0.0
 30
0.0
 70
   128
 71
     1
 72
     4
 73
     5
  0
SEQEND
  5
2CD
330
2CC
100
AcDbEntity
  8
0
  0
POLYLINE
  5
2DC
330
1F
100
AcDbEntity
  8
0
 62
     0
100
AcDbPolyFaceMesh
 66
     1
 10
0.0
 20
0.0
 30
0.0
 70
    64
 71
     8
 72
     6
  0
VERTEX
  5
2DE
330
2DC
100
AcDbEntity
  8
0
100
AcDbVertex
100
AcDbPolyFaceMeshVertex
 10
0.1968503929674625
 20
15.47244088724256
 30
-11.25984247773886
 70
   192
  0
VERTEX
  5
2DF
330
2DC
100
AcDbEntity
  8
0
100
AcDbVertex
100
AcDbPolyFaceMeshVertex
 10
0.1391942477109609
 20
15.47244088724256
 30
-11.39903627489503
 70
   192
  0
VERTEX
  5
2E0
330
2DC
100
AcDbEntity
  8
0
100
AcDbVertex
100
AcDbPolyFaceMeshVertex
 10
0.0000000000015068
 20
15.47244088724256
 30
-11.45669287070632
 70
   192
  0
VERTEX
  5
2E1
330
2DC
100
AcDbEntity
  8
0
100
AcDbVertex
100
AcDbPolyFaceMeshVertex
 10
-0.0000000000005023
 20
15.47244088724256
 30
-11.0629920847714
 70
   192
  0
VERTEX
  5
2E2
330
2DC
100
AcDbEntity
  8
0
100
AcDbVertex
100
AcDbPolyFaceMeshVertex
 10
0.1391942477109609
 20
15.47244088724256
 30
-11.12064868058269
 70
   192
  0
VERTEX
  5
2E3
330
2DC
100
AcDbEntity
  8
0
100
AcDbVertex
100
AcDbPolyFaceMeshVertex
 10
-0.1968503929674625
 20
15.47244088724256
 30
-11.25984247773886
 70
   192
  0
VERTEX
  5
2E4
330
2DC
100
AcDbEntity
  8
0
100
AcDbVertex
100
AcDbPolyFaceMeshVertex
 10
-0.1391942477109609
 20
15.47244088724256
 30
-11.39903627489503
 70
   192
  0
VERTEX
  5
2E5
330
2DC
100
AcDbEntity
  8
0
100
AcDbVertex
100
AcDbPolyFaceMeshVertex
 10
-0.1391942477109609
 20
15.47244088724256
 30
-11.12064868058269
 70
   192
  0
VERTEX
  5
2E6
330
2DC
100
AcDbEntity
  8
0
100
AcDbFaceRecord
 10
0.0
 20
0.0
 30
0.0
 70
   128
 71
     8
 72
     4
 73
     6
  0
VERTEX
  5
2E7
330
2DC
100
AcDbEntity
  8
0
100
AcDbFaceRecord
 10
0.0
 20
0.0
 30
0.0
 70
   128
 71
     3
 72
     6
 73
     4
  0
VERTEX
  5
2E8
330
2DC
100
AcDbEntity
  8
0
100
AcDbFaceRecord
 10
0.0
 20
0.0
 30
0.0
 70
   128
 71
     6
 72
     3
 73
     7
  0
VERTEX
  5
2E9
330
2DC
100
AcDbEntity
  8
0
100
AcDbFaceRecord
 10
0.0
 20
0.0
 30
0.0
 70
   128
 71
     2
 72
     3
 73
     1
  0
VERTEX
  5
2EA
330
2DC
100
AcDbEntity
  8
0
100
AcDbFaceRecord
 10
0.0
 20
0.0
 30
0.0
 70
   128
 71
     4
 72
     1
 73
     3
  0
VERTEX
  5
2EB
330
2DC
100
AcDbEntity
  8
0
100
AcDbFaceRecord
 10
0.0
 20
0.0
 30
0.0
 70
   128
 71
     1
 72
     4
 73
     5
  0
SEQEND
  5
2DD
330
2DC
100
AcDbEntity
  8
0
  0
POLYLINE
  5
2EC
330
1F
100
AcDbEntity
  8
0
 62
     0
100
AcDbPolyFaceMesh
 66
     1
 10
0.0
 20
0.0
 30
0.0
 70
    64
 71
     8
 72
     6
  0
VERTEX
  5
2EE
330
2EC
100
AcDbEntity
  8
0
100
AcDbVertex
100
AcDbPolyFaceMeshVertex
 10
3.740157466381788
 20
0.0393700785934925
 30
-1.73228345811367
 70
   192
  0
VERTEX
  5
2EF
330
2EC
100
AcDbEntity
  8
0
100
AcDbVertex
100
AcDbPolyFaceMeshVertex
 10
3.797813461453359
 20
0.0393700785934925
 30
-1.87147770582463
 70
   192
  0
VERTEX
  5
2F0
330
2EC
100
AcDbEntity
  8
0
100
AcDbVertex
100
AcDbPolyFaceMeshVertex
 10
3.937007859349251
 20
0.0393700785934925
 30
-1.929133851081133
 70
   192
  0
VERTEX
  5
2F1
330
2EC
100
AcDbEntity
  8
0
100
AcDbVertex
100
AcDbPolyFaceMeshVertex
 10
4.133858252316712
 20
0.0393700785934925
 30
-1.73228345811367
 70
   192
  0
VERTEX
  5
2F2
330
2EC
100
AcDbEntity
  8
0
100
AcDbVertex
100
AcDbPolyFaceMeshVertex
 10
4.076201956875281
 20
0.0393700785934925
 30
-1.87147770582463
 70
   192
  0
VERTEX
  5
2F3
330
2EC
100
AcDbEntity
  8
0
100
AcDbVertex
100
AcDbPolyFaceMeshVertex
 10
3.937007859349251
 20
0.0393700785934925
 30
-1.535433065146207
 70
   192
  0
VERTEX
  5
2F4
330
2EC
100
AcDbEntity
  8
0
100
AcDbVertex
100
AcDbPolyFaceMeshVertex
 10
4.076201956875281
 20
0.0393700785934925
 30
-1.593089210402709
 70
   192
  0
VERTEX
  5
2F5
330
2EC
100
AcDbEntity
  8
0
100
AcDbVertex
100
AcDbPolyFaceMeshVertex
 10
3.797813461453359
 20
0.0393700785934925
 30
-1.593089210402709
 70
   192
  0
VERTEX
  5
2F6
330
2EC
100
AcDbEntity
  8
0
100
AcDbFaceRecord
 10
0.0
 20
0.0
 30
0.0
 70
   128
 71
     7
 72
     6
 73
     4
  0
VERTEX
  5
2F7
330
2EC
100
AcDbEntity
  8
0
100
AcDbFaceRecord
 10
0.0
 20
0.0
 30
0.0
 70
   128
 71
     1
 72
     4
 73
     6
  0
VERTEX
  5
2F8
330
2EC
100
AcDbEntity
  8
0
100
AcDbFaceRecord
 10
0.0
 20
0.0
 30
0.0
 70
   128
 71
     4
 72
     1
 73
     3
  0
VERTEX
  5
2F9
330
2EC
100
AcDbEntity
  8
0
100
AcDbFaceRecord
 10
0.0
 20
0.0
 30
0.0
 70
   128
 71
     2
 72
     3
 73
     1
  0
VERTEX
  5
2FA
330
2EC
100
AcDbEntity
  8
0
100
AcDbFaceRecord
 10
0.0
 20
0.0
 30
0.0
 70
   128
 71
     1
 72
     6
 73
     8
  0
VERTEX
  5
2FB
330
2EC
100
AcDbEntity
  8
0
100
AcDbFaceRecord
 10
0.0
 20
0.0
 30
0.0
 70
   128
 71
     4
 72
     3
 73
     5
  0
SEQEND
  5
2ED
330
2EC
100
AcDbEntity
  8
0
  0
POLYLINE
  5
2FC
330
1F
100
AcDbEntity
  8
0
 62
     0
100
AcDbPolyFaceMesh
 66
     1
 10
0.0
 20
0.0
 30
0.0
 70
    64
 71
     8
 72
     6
  0
VERTEX
  5
2FE
330
2FC
100
AcDbEntity
  8
0
100
AcDbVertex
100
AcDbPolyFaceMeshVertex
 10
-4.133858252316712
 20
0.0393700785934925
 30
-1.73228345811367
 70
   192
  0
VERTEX
  5
2FF
330
2FC
100
AcDbEntity
  8
0
100
AcDbVertex
100
AcDbPolyFaceMeshVertex
 10
-4.076201956875281
 20
0.0393700785934925
 30
-1.87147770582463
 70
   192
  0
VERTEX
  5
300
330
2FC
100
AcDbEntity
  8
0
100
AcDbVertex
100
AcDbPolyFaceMeshVertex
 10
-3.937007859349251
 20
0.0393700785934925
 30
-1.929133851081133
 70
   192
  0
VERTEX
  5
301
330
2FC
100
AcDbEntity
  8
0
100
AcDbVertex
100
AcDbPolyFaceMeshVertex
 10
-3.740157466381788
 20
0.0393700785934925
 30
-1.73228345811367
 70
   192
  0
VERTEX
  5
302
330
2FC
100
AcDbEntity
  8
0
100
AcDbVertex
100
AcDbPolyFaceMeshVertex
 10
-3.797813461453359
 20
0.0393700785934925
 30
-1.87147770582463
 70
   192
  0
VERTEX
  5
303
330
2FC
100
AcDbEntity
  8
0
100
AcDbVertex
100
AcDbPolyFaceMeshVertex
 10
-3.937007859349251
 20
0.0393700785934925
 30
-1.535433065146207
 70
   192
  0
VERTEX
  5
304
330
2FC
100
AcDbEntity
  8
0
100
AcDbVertex
100
AcDbPolyFaceMeshVertex
 10
-3.797813461453359
 20
0.0393700785934925
 30
-1.593089210402709
 70
   192
  0
VERTEX
  5
305
330
2FC
100
AcDbEntity
  8
0
100
AcDbVertex
100
AcDbPolyFaceMeshVertex
 10
-4.076201956875281
 20
0.0393700785934925
 30
-1.593089210402709
 70
   192
  0
VERTEX
  5
306
330
2FC
100
AcDbEntity
  8
0
100
AcDbFaceRecord
 10
0.0
 20
0.0
 30
0.0
 70
   128
 71
     7
 72
     6
 73
     4
  0
VERTEX
  5
307
330
2FC
100
AcDbEntity
  8
0
100
AcDbFaceRecord
 10
0.0
 20
0.0
 30
0.0
 70
   128
 71
     1
 72
     4
 73
     6
  0
VERTEX
  5
308
330
2FC
100
AcDbEntity
  8
0
100
AcDbFaceRecord
 10
0.0
 20
0.0
 30
0.0
 70
   128
 71
     4
 72
     1
 73
     3
  0
VERTEX
  5
309
330
2FC
100
AcDbEntity
  8
0
100
AcDbFaceRecord
 10
0.0
 20
0.0
 30
0.0
 70
   128
 71
     2
 72
     3
 73
     1
  0
VERTEX
  5
30A
330
2FC
100
AcDbEntity
  8
0
100
AcDbFaceRecord
 10
0.0
 20
0.0
 30
0.0
 70
   128
 71
     1
 72
     6
 73
     8
  0
VERTEX
  5
30B
330
2FC
100
AcDbEntity
  8
0
100
AcDbFaceRecord
 10
0.0
 20
0.0
 30
0.0
 70
   128
 71
     4
 72
     3
 73
     5
  0
SEQEND
  5
2FD
330
2FC
100
AcDbEntity
  8
0
  0
POLYLINE
  5
30C
330
1F
100
AcDbEntity
  8
0
 62
     0
100
AcDbPolyFaceMesh
 66
     1
 10
0.0
 20
0.0
 30
0.0
 70
    64
 71
     8
 72
     6
  0
VERTEX
  5
30E
330
30C
100
AcDbEntity
  8
0
100
AcDbVertex
100
AcDbPolyFaceMeshVertex
 10
-3.543307073414326
 20
15.47244088724256
 30
-11.29921255633235
 70
   192
  0
VERTEX
  5
30F
330
30C
100
AcDbEntity
  8
0
100
AcDbVertex
100
AcDbPolyFaceMeshVertex
 10
-3.600963368855758
 20
15.47244088724256
 30
-11.43840755496797
 70
   192
  0
VERTEX
  5
310
330
30C
100
AcDbEntity
  8
0
100
AcDbVertex
100
AcDbPolyFaceMeshVertex
 10
-3.740157466381788
 20
15.47244088724256
 30
-11.49606294929981
 70
   192
  0
VERTEX
  5
311
330
30C
100
AcDbEntity
  8
0
100
AcDbVertex
100
AcDbPolyFaceMeshVertex
 10
-3.937007859349251
 20
15.47244088724256
 30
-11.29921255633235
 70
   192
  0
VERTEX
  5
312
330
30C
100
AcDbEntity
  8
0
100
AcDbVertex
100
AcDbPolyFaceMeshVertex
 10
-3.879351563907817
 20
15.47244088724256
 30
-11.43840755496797
 70
   192
  0
VERTEX
  5
313
330
30C
100
AcDbEntity
  8
0
100
AcDbVertex
100
AcDbPolyFaceMeshVertex
 10
-3.740157466381788
 20
15.47244088724256
 30
-11.10236216336489
 70
   192
  0
VERTEX
  5
314
330
30C
100
AcDbEntity
  8
0
100
AcDbVertex
100
AcDbPolyFaceMeshVertex
 10
-3.879351563907817
 20
15.47244088724256
 30
-11.16001755769673
 70
   192
  0
VERTEX
  5
315
330
30C
100
AcDbEntity
  8
0
100
AcDbVertex
100
AcDbPolyFaceMeshVertex
 10
-3.600963368855758
 20
15.47244088724256
 30
-11.16001755769673
 70
   192
  0
VERTEX
  5
316
330
30C
100
AcDbEntity
  8
0
100
AcDbFaceRecord
 10
0.0
 20
0.0
 30
0.0
 70
   128
 71
     7
 72
     6
 73
     4
  0
VERTEX
  5
317
330
30C
100
AcDbEntity
  8
0
100
AcDbFaceRecord
 10
0.0
 20
0.0
 30
0.0
 70
   128
 71
     1
 72
     4
 73
     6
  0
VERTEX
  5
318
330
30C
100
AcDbEntity
  8
0
100
AcDbFaceRecord
 10
0.0
 20
0.0
 30
0.0
 70
   128
 71
     4
 72
     1
 73
     3
  0
VERTEX
  5
319
330
30C
100
AcDbEntity
  8
0
100
AcDbFaceRecord
 10
0.0
 20
0.0
 30
0.0
 70
   128
 71
     2
 72
     3
 73
     1
  0
VERTEX
  5
31A
330
30C
100
AcDbEntity
  8
0
100
AcDbFaceRecord
 10
0.0
 20
0.0
 30
0.0
 70
   128
 71
     1
 72
     6
 73
     8
  0
VERTEX
  5
31B
330
30C
100
AcDbEntity
  8
0
100
AcDbFaceRecord
 10
0.0
 20
0.0
 30
0.0
 70
   128
 71
     4
 72
     3
 73
     5
  0
SEQEND
  5
30D
330
30C
100
AcDbEntity
  8
0
  0
POLYLINE
  5
31C
330
1F
100
AcDbEntity
  8
0
 62
     0
100
AcDbPolyFaceMesh
 66
     1
 10
0.0
 20
0.0
 30
0.0
 70
    64
 71
     8
 72
     6
  0
VERTEX
  5
31E
330
31C
100
AcDbEntity
  8
0
100
AcDbVertex
100
AcDbPolyFaceMeshVertex
 10
3.740157466381788
 20
0.0393700785934925
 30
-20.62992118299007
 70
   192
  0
VERTEX
  5
31F
330
31C
100
AcDbEntity
  8
0
100
AcDbVertex
100
AcDbPolyFaceMeshVertex
 10
3.797813461453359
 20
0.0393700785934925
 30
-20.76911738310514
 70
   192
  0
VERTEX
  5
320
330
31C
100
AcDbEntity
  8
0
100
AcDbVertex
100
AcDbPolyFaceMeshVertex
 10
3.937007859349251
 20
0.0393700785934925
 30
-20.82677157595754
 70
   192
  0
VERTEX
  5
321
330
31C
100
AcDbEntity
  8
0
100
AcDbVertex
100
AcDbPolyFaceMeshVertex
 10
4.133858252316712
 20
0.0393700785934925
 30
-20.62992118299007
 70
   192
  0
VERTEX
  5
322
330
31C
100
AcDbEntity
  8
0
100
AcDbVertex
100
AcDbPolyFaceMeshVertex
 10
4.076201956875281
 20
0.0393700785934925
 30
-20.76911738310514
 70
   192
  0
VERTEX
  5
323
330
31C
100
AcDbEntity
  8
0
100
AcDbVertex
100
AcDbPolyFaceMeshVertex
 10
3.937007859349251
 20
0.0393700785934925
 30
-20.43307079002261
 70
   192
  0
VERTEX
  5
324
330
31C
100
AcDbEntity
  8
0
100
AcDbVertex
100
AcDbPolyFaceMeshVertex
 10
4.076201956875281
 20
0.0393700785934925
 30
-20.49072738583391
 70
   192
  0
VERTEX
  5
325
330
31C
100
AcDbEntity
  8
0
100
AcDbVertex
100
AcDbPolyFaceMeshVertex
 10
3.797813461453359
 20
0.0393700785934925
 30
-20.49072738583391
 70
   192
  0
VERTEX
  5
326
330
31C
100
AcDbEntity
  8
0
100
AcDbFaceRecord
 10
0.0
 20
0.0
 30
0.0
 70
   128
 71
     7
 72
     6
 73
     4
  0
VERTEX
  5
327
330
31C
100
AcDbEntity
  8
0
100
AcDbFaceRecord
 10
0.0
 20
0.0
 30
0.0
 70
   128
 71
     1
 72
     4
 73
     6
  0
VERTEX
  5
328
330
31C
100
AcDbEntity
  8
0
100
AcDbFaceRecord
 10
0.0
 20
0.0
 30
0.0
 70
   128
 71
     4
 72
     1
 73
     3
  0
VERTEX
  5
329
330
31C
100
AcDbEntity
  8
0
100
AcDbFaceRecord
 10
0.0
 20
0.0
 30
0.0
 70
   128
 71
     2
 72
     3
 73
     1
  0
VERTEX
  5
32A
330
31C
100
AcDbEntity
  8
0
100
AcDbFaceRecord
 10
0.0
 20
0.0
 30
0.0
 70
   128
 71
     1
 72
     6
 73
     8
  0
VERTEX
  5
32B
330
31C
100
AcDbEntity
  8
0
100
AcDbFaceRecord
 10
0.0
 20
0.0
 30
0.0
 70
   128
 71
     4
 72
     3
 73
     5
  0
SEQEND
  5
31D
330
31C
100
AcDbEntity
  8
0
  0
POLYLINE
  5
32C
330
1F
100
AcDbEntity
  8
0
 62
     0
100
AcDbPolyFaceMesh
 66
     1
 10
0.0
 20
0.0
 30
0.0
 70
    64
 71
     8
 72
     6
  0
VERTEX
  5
32E
330
32C
100
AcDbEntity
  8
0
100
AcDbVertex
100
AcDbPolyFaceMeshVertex
 10
-4.133858252316712
 20
0.0393700785934925
 30
-20.62992118299007
 70
   192
  0
VERTEX
  5
32F
330
32C
100
AcDbEntity
  8
0
100
AcDbVertex
100
AcDbPolyFaceMeshVertex
 10
-4.076201956875281
 20
0.0393700785934925
 30
-20.76911738310514
 70
   192
  0
VERTEX
  5
330
330
32C
100
AcDbEntity
  8
0
100
AcDbVertex
100
AcDbPolyFaceMeshVertex
 10
-3.937007859349251
 20
0.0393700785934925
 30
-20.82677157595754
 70
   192
  0
VERTEX
  5
331
330
32C
100
AcDbEntity
  8
0
100
AcDbVertex
100
AcDbPolyFaceMeshVertex
 10
-3.740157466381788
 20
0.0393700785934925
 30
-20.62992118299007
 70
   192
  0
VERTEX
  5
332
330
32C
100
AcDbEntity
  8
0
100
AcDbVertex
100
AcDbPolyFaceMeshVertex
 10
-3.797813461453359
 20
0.0393700785934925
 30
-20.76911738310514
 70
   192
  0
VERTEX
  5
333
330
32C
100
AcDbEntity
  8
0
100
AcDbVertex
100
AcDbPolyFaceMeshVertex
 10
-3.937007859349251
 20
0.0393700785934925
 30
-20.43307079002261
 70
   192
  0
VERTEX
  5
334
330
32C
100
AcDbEntity
  8
0
100
AcDbVertex
100
AcDbPolyFaceMeshVertex
 10
-3.797813461453359
 20
0.0393700785934925
 30
-20.49072738583391
 70
   192
  0
VERTEX
  5
335
330
32C
100
AcDbEntity
  8
0
100
AcDbVertex
100
AcDbPolyFaceMeshVertex
 10
-4.076201956875281
 20
0.0393700785934925
 30
-20.49072738583391
 70
   192
  0
VERTEX
  5
336
330
32C
100
AcDbEntity
  8
0
100
AcDbFaceRecord
 10
0.0
 20
0.0
 30
0.0
 70
   128
 71
     7
 72
     6
 73
     4
  0
VERTEX
  5
337
330
32C
100
AcDbEntity
  8
0
100
AcDbFaceRecord
 10
0.0
 20
0.0
 30
0.0
 70
   128
 71
     1
 72
     4
 73
     6
  0
VERTEX
  5
338
330
32C
100
AcDbEntity
  8
0
100
AcDbFaceRecord
 10
0.0
 20
0.0
 30
0.0
 70
   128
 71
     4
 72
     1
 73
     3
  0
VERTEX
  5
339
330
32C
100
AcDbEntity
  8
0
100
AcDbFaceRecord
 10
0.0
 20
0.0
 30
0.0
 70
   128
 71
     2
 72
     3
 73
     1
  0
VERTEX
  5
33A
330
32C
100
AcDbEntity
  8
0
100
AcDbFaceRecord
 10
0.0
 20
0.0
 30
0.0
 70
   128
 71
     1
 72
     6
 73
     8
  0
VERTEX
  5
33B
330
32C
100
AcDbEntity
  8
0
100
AcDbFaceRecord
 10
0.0
 20
0.0
 30
0.0
 70
   128
 71
     4
 72
     3
 73
     5
  0
SEQEND
  5
32D
330
32C
100
AcDbEntity
  8
0
  0
POLYLINE
  5
33C
330
1F
100
AcDbEntity
  8
0
 62
     0
100
AcDbPolyFaceMesh
 66
     1
 10
0.0
 20
0.0
 30
0.0
 70
    64
 71
    10
 72
     8
  0
VERTEX
  5
33E
330
33C
100
AcDbEntity
  8
0
100
AcDbVertex
100
AcDbPolyFaceMeshVertex
 10
-3.797813461453359
 20
0.0393700785934925
 30
-20.49072738583391
 70
   192
  0
VERTEX
  5
33F
330
33C
100
AcDbEntity
  8
0
100
AcDbVertex
100
AcDbPolyFaceMeshVertex
 10
-3.740157466381788
 20
0.0393700785934925
 30
-20.62992118299007
 70
   192
  0
VERTEX
  5
340
330
33C
100
AcDbEntity
  8
0
100
AcDbVertex
100
AcDbPolyFaceMeshVertex
 10
-3.740157466381788
 20
0.0
 30
-20.62992118299007
 70
   192
  0
VERTEX
  5
341
330
33C
100
AcDbEntity
  8
0
100
AcDbVertex
100
AcDbPolyFaceMeshVertex
 10
-3.797813461453359
 20
0.0
 30
-20.49072738583391
 70
   192
  0
VERTEX
  5
342
330
33C
100
AcDbEntity
  8
0
100
AcDbVertex
100
AcDbPolyFaceMeshVertex
 10
-3.937007859349251
 20
0.0
 30
-20.43307079002261
 70
   192
  0
VERTEX
  5
343
330
33C
100
AcDbEntity
  8
0
100
AcDbVertex
100
AcDbPolyFaceMeshVertex
 10
-3.937007859349251
 20
0.0393700785934925
 30
-20.43307079002261
 70
   192
  0
VERTEX
  5
344
330
33C
100
AcDbEntity
  8
0
100
AcDbVertex
100
AcDbPolyFaceMeshVertex
 10
-4.076201956875281
 20
0.0
 30
-20.49072738583391
 70
   192
  0
VERTEX
  5
345
330
33C
100
AcDbEntity
  8
0
100
AcDbVertex
100
AcDbPolyFaceMeshVertex
 10
-4.076201956875281
 20
0.0393700785934925
 30
-20.49072738583391
 70
   192
  0
VERTEX
  5
346
330
33C
100
AcDbEntity
  8
0
100
AcDbVertex
100
AcDbPolyFaceMeshVertex
 10
-4.133858252316712
 20
0.0
 30
-20.62992118299007
 70
   192
  0
VERTEX
  5
347
330
33C
100
AcDbEntity
  8
0
100
AcDbVertex
100
AcDbPolyFaceMeshVertex
 10
-4.133858252316712
 20
0.0393700785934925
 30
-20.62992118299007
 70
   192
  0
VERTEX
  5
348
330
33C
100
AcDbEntity
  8
0
100
AcDbFaceRecord
 10
0.0
 20
0.0
 30
0.0
 70
   128
 71
     9
 72
    10
 73
     7
  0
VERTEX
  5
349
330
33C
100
AcDbEntity
  8
0
100
AcDbFaceRecord
 10
0.0
 20
0.0
 30
0.0
 70
   128
 71
     8
 72
     7
 73
    10
  0
VERTEX
  5
34A
330
33C
100
AcDbEntity
  8
0
100
AcDbFaceRecord
 10
0.0
 20
0.0
 30
0.0
 70
   128
 71
     7
 72
     8
 73
     5
  0
VERTEX
  5
34B
330
33C
100
AcDbEntity
  8
0
100
AcDbFaceRecord
 10
0.0
 20
0.0
 30
0.0
 70
   128
 71
     6
 72
     5
 73
     8
  0
VERTEX
  5
34C
330
33C
100
AcDbEntity
  8
0
100
AcDbFaceRecord
 10
0.0
 20
0.0
 30
0.0
 70
   128
 71
     5
 72
     6
 73
     4
  0
VERTEX
  5
34D
330
33C
100
AcDbEntity
  8
0
100
AcDbFaceRecord
 10
0.0
 20
0.0
 30
0.0
 70
   128
 71
     1
 72
     4
 73
     6
  0
VERTEX
  5
34E
330
33C
100
AcDbEntity
  8
0
100
AcDbFaceRecord
 10
0.0
 20
0.0
 30
0.0
 70
   128
 71
     4
 72
     1
 73
     3
  0
VERTEX
  5
34F
330
33C
100
AcDbEntity
  8
0
100
AcDbFaceRecord
 10
0.0
 20
0.0
 30
0.0
 70
   128
 71
     2
 72
     3
 73
     1
  0
SEQEND
  5
33D
330
33C
100
AcDbEntity
  8
0
  0
POLYLINE
  5
350
330
1F
100
AcDbEntity
  8
0
 62
     0
100
AcDbPolyFaceMesh
 66
     1
 10
0.0
 20
0.0
 30
0.0
 70
    64
 71
    10
 72
     8
  0
VERTEX
  5
352
330
350
100
AcDbEntity
  8
0
100
AcDbVertex
100
AcDbPolyFaceMeshVertex
 10
-4.076201956875281
 20
0.0393700785934925
 30
-20.76911738310514
 70
   192
  0
VERTEX
  5
353
330
350
100
AcDbEntity
  8
0
100
AcDbVertex
100
AcDbPolyFaceMeshVertex
 10
-4.133858252316712
 20
0.0393700785934925
 30
-20.62992118299007
 70
   192
  0
VERTEX
  5
354
330
350
100
AcDbEntity
  8
0
100
AcDbVertex
100
AcDbPolyFaceMeshVertex
 10
-4.133858252316712
 20
0.0
 30
-20.62992118299007
 70
   192
  0
VERTEX
  5
355
330
350
100
AcDbEntity
  8
0
100
AcDbVertex
100
AcDbPolyFaceMeshVertex
 10
-4.076201956875281
 20
0.0
 30
-20.76911738310514
 70
   192
  0
VERTEX
  5
356
330
350
100
AcDbEntity
  8
0
100
AcDbVertex
100
AcDbPolyFaceMeshVertex
 10
-3.937007859349251
 20
0.0
 30
-20.82677157595754
 70
   192
  0
VERTEX
  5
357
330
350
100
AcDbEntity
  8
0
100
AcDbVertex
100
AcDbPolyFaceMeshVertex
 10
-3.937007859349251
 20
0.0393700785934925
 30
-20.82677157595754
 70
   192
  0
VERTEX
  5
358
330
350
100
AcDbEntity
  8
0
100
AcDbVertex
100
AcDbPolyFaceMeshVertex
 10
-3.797813461453359
 20
0.0
 30
-20.76911738310514
 70
   192
  0
VERTEX
  5
359
330
350
100
AcDbEntity
  8
0
100
AcDbVertex
100
AcDbPolyFaceMeshVertex
 10
-3.797813461453359
 20
0.0393700785934925
 30
-20.76911738310514
 70
   192
  0
VERTEX
  5
35A
330
350
100
AcDbEntity
  8
0
100
AcDbVertex
100
AcDbPolyFaceMeshVertex
 10
-3.740157466381788
 20
0.0
 30
-20.62992118299007
 70
   192
  0
VERTEX
  5
35B
330
350
100
AcDbEntity
  8
0
100
AcDbVertex
100
AcDbPolyFaceMeshVertex
 10
-3.740157466381788
 20
0.0393700785934925
 30
-20.62992118299007
 70
   192
  0
VERTEX
  5
35C
330
350
100
AcDbEntity
  8
0
100
AcDbFaceRecord
 10
0.0
 20
0.0
 30
0.0
 70
   128
 71
     9
 72
    10
 73
     7
  0
VERTEX
  5
35D
330
350
100
AcDbEntity
  8
0
100
AcDbFaceRecord
 10
0.0
 20
0.0
 30
0.0
 70
   128
 71
     8
 72
     7
 73
    10
  0
VERTEX
  5
35E
330
350
100
AcDbEntity
  8
0
100
AcDbFaceRecord
 10
0.0
 20
0.0
 30
0.0
 70
   128
 71
     7
 72
     8
 73
     5
  0
VERTEX
  5
35F
330
350
100
AcDbEntity
  8
0
100
AcDbFaceRecord
 10
0.0
 20
0.0
 30
0.0
 70
   128
 71
     6
 72
     5
 73
     8
  0
VERTEX
  5
360
330
350
100
AcDbEntity
  8
0
100
AcDbFaceRecord
 10
0.0
 20
0.0
 30
0.0
 70
   128
 71
     5
 72
     6
 73
     4
  0
VERTEX
  5
361
330
350
100
AcDbEntity
  8
0
100
AcDbFaceRecord
 10
0.0
 20
0.0
 30
0.0
 70
   128
 71
     1
 72
     4
 73
     6
  0
VERTEX
  5
362
330
350
100
AcDbEntity
  8
0
100
AcDbFaceRecord
 10
0.0
 20
0.0
 30
0.0
 70
   128
 71
     4
 72
     1
 73
     3
  0
VERTEX
  5
363
330
350
100
AcDbEntity
  8
0
100
AcDbFaceRecord
 10
0.0
 20
0.0
 30
0.0
 70
   128
 71
     2
 72
     3
 73
     1
  0
SEQEND
  5
351
330
350
100
AcDbEntity
  8
0
  0
POLYLINE
  5
364
330
1F
100
AcDbEntity
  8
0
 62
     0
100
AcDbPolyFaceMesh
 66
     1
 10
0.0
 20
0.0
 30
0.0
 70
    64
 71
    10
 72
     8
  0
VERTEX
  5
366
330
364
100
AcDbEntity
  8
0
100
AcDbVertex
100
AcDbPolyFaceMeshVertex
 10
-4.076201956875281
 20
0.0393700785934925
 30
-1.87147770582463
 70
   192
  0
VERTEX
  5
367
330
364
100
AcDbEntity
  8
0
100
AcDbVertex
100
AcDbPolyFaceMeshVertex
 10
-4.133858252316712
 20
0.0393700785934925
 30
-1.73228345811367
 70
   192
  0
VERTEX
  5
368
330
364
100
AcDbEntity
  8
0
100
AcDbVertex
100
AcDbPolyFaceMeshVertex
 10
-4.133858252316712
 20
0.0
 30
-1.73228345811367
 70
   192
  0
VERTEX
  5
369
330
364
100
AcDbEntity
  8
0
100
AcDbVertex
100
AcDbPolyFaceMeshVertex
 10
-4.076201956875281
 20
0.0
 30
-1.87147770582463
 70
   192
  0
VERTEX
  5
36A
330
364
100
AcDbEntity
  8
0
100
AcDbVertex
100
AcDbPolyFaceMeshVertex
 10
-3.937007859349251
 20
0.0
 30
-1.929133851081133
 70
   192
  0
VERTEX
  5
36B
330
364
100
AcDbEntity
  8
0
100
AcDbVertex
100
AcDbPolyFaceMeshVertex
 10
-3.937007859349251
 20
0.0393700785934925
 30
-1.929133851081133
 70
   192
  0
VERTEX
  5
36C
330
364
100
AcDbEntity
  8
0
100
AcDbVertex
100
AcDbPolyFaceMeshVertex
 10
-3.797813461453359
 20
0.0
 30
-1.87147770582463
 70
   192
  0
VERTEX
  5
36D
330
364
100
AcDbEntity
  8
0
100
AcDbVertex
100
AcDbPolyFaceMeshVertex
 10
-3.797813461453359
 20
0.0393700785934925
 30
-1.87147770582463
 70
   192
  0
VERTEX
  5
36E
330
364
100
AcDbEntity
  8
0
100
AcDbVertex
100
AcDbPolyFaceMeshVertex
 10
-3.740157466381788
 20
0.0
 30
-1.73228345811367
 70
   192
  0
VERTEX
  5
36F
330
364
100
AcDbEntity
  8
0
100
AcDbVertex
100
AcDbPolyFaceMeshVertex
 10
-3.740157466381788
 20
0.0393700785934925
 30
-1.73228345811367
 70
   192
  0
VERTEX
  5
370
330
364
100
AcDbEntity
  8
0
100
AcDbFaceRecord
 10
0.0
 20
0.0
 30
0.0
 70
   128
 71
     9
 72
    10
 73
     7
  0
VERTEX
  5
371
330
364
100
AcDbEntity
  8
0
100
AcDbFaceRecord
 10
0.0
 20
0.0
 30
0.0
 70
   128
 71
     8
 72
     7
 73
    10
  0
VERTEX
  5
372
330
364
100
AcDbEntity
  8
0
100
AcDbFaceRecord
 10
0.0
 20
0.0
 30
0.0
 70
   128
 71
     7
 72
     8
 73
     5
  0
VERTEX
  5
373
330
364
100
AcDbEntity
  8
0
100
AcDbFaceRecord
 10
0.0
 20
0.0
 30
0.0
 70
   128
 71
     6
 72
     5
 73
     8
  0
VERTEX
  5
374
330
364
100
AcDbEntity
  8
0
100
AcDbFaceRecord
 10
0.0
 20
0.0
 30
0.0
 70
   128
 71
     5
 72
     6
 73
     4
  0
VERTEX
  5
375
330
364
100
AcDbEntity
  8
0
100
AcDbFaceRecord
 10
0.0
 20
0.0
 30
0.0
 70
   128
 71
     1
 72
     4
 73
     6
  0
VERTEX
  5
376
330
364
100
AcDbEntity
  8
0
100
AcDbFaceRecord
 10
0.0
 20
0.0
 30
0.0
 70
   128
 71
     4
 72
     1
 73
     3
  0
VERTEX
  5
377
330
364
100
AcDbEntity
  8
0
100
AcDbFaceRecord
 10
0.0
 20
0.0
 30
0.0
 70
   128
 71
     2
 72
     3
 73
     1
  0
SEQEND
  5
365
330
364
100
AcDbEntity
  8
0
  0
POLYLINE
  5
378
330
1F
100
AcDbEntity
  8
0
 62
     0
100
AcDbPolyFaceMesh
 66
     1
 10
0.0
 20
0.0
 30
0.0
 70
    64
 71
    10
 72
     8
  0
VERTEX
  5
37A
330
378
100
AcDbEntity
  8
0
100
AcDbVertex
100
AcDbPolyFaceMeshVertex
 10
-0.1391942477109609
 20
15.47244088724256
 30
-11.12064868058269
 70
   192
  0
VERTEX
  5
37B
330
378
100
AcDbEntity
  8
0
100
AcDbVertex
100
AcDbPolyFaceMeshVertex
 10
-0.1968503929674625
 20
15.47244088724256
 30
-11.25984247773886
 70
   192
  0
VERTEX
  5
37C
330
378
100
AcDbEntity
  8
0
100
AcDbVertex
100
AcDbPolyFaceMeshVertex
 10
-0.1968503929674625
 20
15.51181096583605
 30
-11.25984247773886
 70
   192
  0
VERTEX
  5
37D
330
378
100
AcDbEntity
  8
0
100
AcDbVertex
100
AcDbPolyFaceMeshVertex
 10
-0.1391942477109609
 20
15.51181096583605
 30
-11.12064868058269
 70
   192
  0
VERTEX
  5
37E
330
378
100
AcDbEntity
  8
0
100
AcDbVertex
100
AcDbPolyFaceMeshVertex
 10
-0.0000000000005023
 20
15.51181096583605
 30
-11.0629920847714
 70
   192
  0
VERTEX
  5
37F
330
378
100
AcDbEntity
  8
0
100
AcDbVertex
100
AcDbPolyFaceMeshVertex
 10
-0.0000000000005023
 20
15.47244088724256
 30
-11.0629920847714
 70
   192
  0
VERTEX
  5
380
330
378
100
AcDbEntity
  8
0
100
AcDbVertex
100
AcDbPolyFaceMeshVertex
 10
0.1391942477109609
 20
15.51181096583605
 30
-11.12064868058269
 70
   192
  0
VERTEX
  5
381
330
378
100
AcDbEntity
  8
0
100
AcDbVertex
100
AcDbPolyFaceMeshVertex
 10
0.1391942477109609
 20
15.47244088724256
 30
-11.12064868058269
 70
   192
  0
VERTEX
  5
382
330
378
100
AcDbEntity
  8
0
100
AcDbVertex
100
AcDbPolyFaceMeshVertex
 10
0.1968503929674625
 20
15.51181096583605
 30
-11.25984247773886
 70
   192
  0
VERTEX
  5
383
330
378
100
AcDbEntity
  8
0
100
AcDbVertex
100
AcDbPolyFaceMeshVertex
 10
0.1968503929674625
 20
15.47244088724256
 30
-11.25984247773886
 70
   192
  0
VERTEX
  5
384
330
378
100
AcDbEntity
  8
0
100
AcDbFaceRecord
 10
0.0
 20
0.0
 30
0.0
 70
   128
 71
     9
 72
    10
 73
     7
  0
VERTEX
  5
385
330
378
100
AcDbEntity
  8
0
100
AcDbFaceRecord
 10
0.0
 20
0.0
 30
0.0
 70
   128
 71
     8
 72
     7
 73
    10
  0
VERTEX
  5
386
330
378
100
AcDbEntity
  8
0
100
AcDbFaceRecord
 10
0.0
 20
0.0
 30
0.0
 70
   128
 71
     7
 72
     8
 73
     5
  0
VERTEX
  5
387
330
378
100
AcDbEntity
  8
0
100
AcDbFaceRecord
 10
0.0
 20
0.0
 30
0.0
 70
   128
 71
     6
 72
     5
 73
     8
  0
VERTEX
  5
388
330
378
100
AcDbEntity
  8
0
100
AcDbFaceRecord
 10
0.0
 20
0.0
 30
0.0
 70
   128
 71
     5
 72
     6
 73
     4
  0
VERTEX
  5
389
330
378
100
AcDbEntity
  8
0
100
AcDbFaceRecord
 10
0.0
 20
0.0
 30
0.0
 70
   128
 71
     1
 72
     4
 73
     6
  0
VERTEX
  5
38A
330
378
100
AcDbEntity
  8
0
100
AcDbFaceRecord
 10
0.0
 20
0.0
 30
0.0
 70
   128
 71
     4
 72
     1
 73
     3
  0
VERTEX
  5
38B
330
378
100
AcDbEntity
  8
0
100
AcDbFaceRecord
 10
0.0
 20
0.0
 30
0.0
 70
   128
 71
     2
 72
     3
 73
     1
  0
SEQEND
  5
379
330
378
100
AcDbEntity
  8
0
  0
POLYLINE
  5
38C
330
1F
100
AcDbEntity
  8
0
 62
     0
100
AcDbPolyFaceMesh
 66
     1
 10
0.0
 20
0.0
 30
0.0
 70
    64
 71
    10
 72
     8
  0
VERTEX
  5
38E
330
38C
100
AcDbEntity
  8
0
100
AcDbVertex
100
AcDbPolyFaceMeshVertex
 10
0.1391942477109609
 20
15.47244088724256
 30
-11.39903627489503
 70
   192
  0
VERTEX
  5
38F
330
38C
100
AcDbEntity
  8
0
100
AcDbVertex
100
AcDbPolyFaceMeshVertex
 10
0.1968503929674625
 20
15.47244088724256
 30
-11.25984247773886
 70
   192
  0
VERTEX
  5
390
330
38C
100
AcDbEntity
  8
0
100
AcDbVertex
100
AcDbPolyFaceMeshVertex
 10
0.1968503929674625
 20
15.51181096583605
 30
-11.25984247773886
 70
   192
  0
VERTEX
  5
391
330
38C
100
AcDbEntity
  8
0
100
AcDbVertex
100
AcDbPolyFaceMeshVertex
 10
0.1391942477109609
 20
15.51181096583605
 30
-11.39903627489503
 70
   192
  0
VERTEX
  5
392
330
38C
100
AcDbEntity
  8
0
100
AcDbVertex
100
AcDbPolyFaceMeshVertex
 10
0.0000000000015068
 20
15.51181096583605
 30
-11.45669287070632
 70
   192
  0
VERTEX
  5
393
330
38C
100
AcDbEntity
  8
0
100
AcDbVertex
100
AcDbPolyFaceMeshVertex
 10
0.0000000000015068
 20
15.47244088724256
 30
-11.45669287070632
 70
   192
  0
VERTEX
  5
394
330
38C
100
AcDbEntity
  8
0
100
AcDbVertex
100
AcDbPolyFaceMeshVertex
 10
-0.1391942477109609
 20
15.51181096583605
 30
-11.39903627489503
 70
   192
  0
VERTEX
  5
395
330
38C
100
AcDbEntity
  8
0
100
AcDbVertex
100
AcDbPolyFaceMeshVertex
 10
-0.1391942477109609
 20
15.47244088724256
 30
-11.39903627489503
 70
   192
  0
VERTEX
  5
396
330
38C
100
AcDbEntity
  8
0
100
AcDbVertex
100
AcDbPolyFaceMeshVertex
 10
-0.1968503929674625
 20
15.51181096583605
 30
-11.25984247773886
 70
   192
  0
VERTEX
  5
397
330
38C
100
AcDbEntity
  8
0
100
AcDbVertex
100
AcDbPolyFaceMeshVertex
 10
-0.1968503929674625
 20
15.47244088724256
 30
-11.25984247773886
 70
   192
  0
VERTEX
  5
398
330
38C
100
AcDbEntity
  8
0
100
AcDbFaceRecord
 10
0.0
 20
0.0
 30
0.0
 70
   128
 71
     9
 72
    10
 73
     7
  0
VERTEX
  5
399
330
38C
100
AcDbEntity
  8
0
100
AcDbFaceRecord
 10
0.0
 20
0.0
 30
0.0
 70
   128
 71
     8
 72
     7
 73
    10
  0
VERTEX
  5
39A
330
38C
100
AcDbEntity
  8
0
100
AcDbFaceRecord
 10
0.0
 20
0.0
 30
0.0
 70
   128
 71
     7
 72
     8
 73
     5
  0
VERTEX
  5
39B
330
38C
100
AcDbEntity
  8
0
100
AcDbFaceRecord
 10
0.0
 20
0.0
 30
0.0
 70
   128
 71
     6
 72
     5
 73
     8
  0
VERTEX
  5
39C
330
38C
100
AcDbEntity
  8
0
100
AcDbFaceRecord
 10
0.0
 20
0.0
 30
0.0
 70
   128
 71
     5
 72
     6
 73
     4
  0
VERTEX
  5
39D
330
38C
100
AcDbEntity
  8
0
100
AcDbFaceRecord
 10
0.0
 20
0.0
 30
0.0
 70
   128
 71
     1
 72
     4
 73
     6
  0
VERTEX
  5
39E
330
38C
100
AcDbEntity
  8
0
100
AcDbFaceRecord
 10
0.0
 20
0.0
 30
0.0
 70
   128
 71
     4
 72
     1
 73
     3
  0
VERTEX
  5
39F
330
38C
100
AcDbEntity
  8
0
100
AcDbFaceRecord
 10
0.0
 20
0.0
 30
0.0
 70
   128
 71
     2
 72
     3
 73
     1
  0
SEQEND
  5
38D
330
38C
100
AcDbEntity
  8
0
  0
POLYLINE
  5
3A0
330
1F
100
AcDbEntity
  8
0
 62
     0
100
AcDbPolyFaceMesh
 66
     1
 10
0.0
 20
0.0
 30
0.0
 70
    64
 71
    10
 72
     8
  0
VERTEX
  5
3A2
330
3A0
100
AcDbEntity
  8
0
100
AcDbVertex
100
AcDbPolyFaceMeshVertex
 10
-3.797813461453359
 20
0.0393700785934925
 30
-1.593089210402709
 70
   192
  0
VERTEX
  5
3A3
330
3A0
100
AcDbEntity
  8
0
100
AcDbVertex
100
AcDbPolyFaceMeshVertex
 10
-3.740157466381788
 20
0.0393700785934925
 30
-1.73228345811367
 70
   192
  0
VERTEX
  5
3A4
330
3A0
100
AcDbEntity
  8
0
100
AcDbVertex
100
AcDbPolyFaceMeshVertex
 10
-3.740157466381788
 20
0.0
 30
-1.73228345811367
 70
   192
  0
VERTEX
  5
3A5
330
3A0
100
AcDbEntity
  8
0
100
AcDbVertex
100
AcDbPolyFaceMeshVertex
 10
-3.797813461453359
 20
0.0
 30
-1.593089210402709
 70
   192
  0
VERTEX
  5
3A6
330
3A0
100
AcDbEntity
  8
0
100
AcDbVertex
100
AcDbPolyFaceMeshVertex
 10
-3.937007859349251
 20
0.0
 30
-1.535433065146207
 70
   192
  0
VERTEX
  5
3A7
330
3A0
100
AcDbEntity
  8
0
100
AcDbVertex
100
AcDbPolyFaceMeshVertex
 10
-3.937007859349251
 20
0.0393700785934925
 30
-1.535433065146207
 70
   192
  0
VERTEX
  5
3A8
330
3A0
100
AcDbEntity
  8
0
100
AcDbVertex
100
AcDbPolyFaceMeshVertex
 10
-4.076201956875281
 20
0.0
 30
-1.593089210402709
 70
   192
  0
VERTEX
  5
3A9
330
3A0
100
AcDbEntity
  8
0
100
AcDbVertex
100
AcDbPolyFaceMeshVertex
 10
-4.076201956875281
 20
0.0393700785934925
 30
-1.593089210402709
 70
   192
  0
VERTEX
  5
3AA
330
3A0
100
AcDbEntity
  8
0
100
AcDbVertex
100
AcDbPolyFaceMeshVertex
 10
-4.133858252316712
 20
0.0
 30
-1.73228345811367
 70
   192
  0
VERTEX
  5
3AB
330
3A0
100
AcDbEntity
  8
0
100
AcDbVertex
100
AcDbPolyFaceMeshVertex
 10
-4.133858252316712
 20
0.0393700785934925
 30
-1.73228345811367
 70
   192
  0
VERTEX
  5
3AC
330
3A0
100
AcDbEntity
  8
0
100
AcDbFaceRecord
 10
0.0
 20
0.0
 30
0.0
 70
   128
 71
     9
 72
    10
 73
     7
  0
VERTEX
  5
3AD
330
3A0
100
AcDbEntity
  8
0
100
AcDbFaceRecord
 10
0.0
 20
0.0
 30
0.0
 70
   128
 71
     8
 72
     7
 73
    10
  0
VERTEX
  5
3AE
330
3A0
100
AcDbEntity
  8
0
100
AcDbFaceRecord
 10
0.0
 20
0.0
 30
0.0
 70
   128
 71
     7
 72
     8
 73
     5
  0
VERTEX
  5
3AF
330
3A0
100
AcDbEntity
  8
0
100
AcDbFaceRecord
 10
0.0
 20
0.0
 30
0.0
 70
   128
 71
     6
 72
     5
 73
     8
  0
VERTEX
  5
3B0
330
3A0
100
AcDbEntity
  8
0
100
AcDbFaceRecord
 10
0.0
 20
0.0
 30
0.0
 70
   128
 71
     5
 72
     6
 73
     4
  0
VERTEX
  5
3B1
330
3A0
100
AcDbEntity
  8
0
100
AcDbFaceRecord
 10
0.0
 20
0.0
 30
0.0
 70
   128
 71
     1
 72
     4
 73
     6
  0
VERTEX
  5
3B2
330
3A0
100
AcDbEntity
  8
0
100
AcDbFaceRecord
 10
0.0
 20
0.0
 30
0.0
 70
   128
 71
     4
 72
     1
 73
     3
  0
VERTEX
  5
3B3
330
3A0
100
AcDbEntity
  8
0
100
AcDbFaceRecord
 10
0.0
 20
0.0
 30
0.0
 70
   128
 71
     2
 72
     3
 73
     1
  0
SEQEND
  5
3A1
330
3A0
100
AcDbEntity
  8
0
  0
POLYLINE
  5
3B4
330
1F
100
AcDbEntity
  8
0
 62
     0
100
AcDbPolyFaceMesh
 66
     1
 10
0.0
 20
0.0
 30
0.0
 70
    64
 71
    10
 72
     8
  0
VERTEX
  5
3B6
330
3B4
100
AcDbEntity
  8
0
100
AcDbVertex
100
AcDbPolyFaceMeshVertex
 10
-3.879351563907817
 20
15.47244088724256
 30
-11.16001755769673
 70
   192
  0
VERTEX
  5
3B7
330
3B4
100
AcDbEntity
  8
0
100
AcDbVertex
100
AcDbPolyFaceMeshVertex
 10
-3.937007859349251
 20
15.47244088724256
 30
-11.29921255633235
 70
   192
  0
VERTEX
  5
3B8
330
3B4
100
AcDbEntity
  8
0
100
AcDbVertex
100
AcDbPolyFaceMeshVertex
 10
-3.937007859349251
 20
15.51181096583605
 30
-11.29921255633235
 70
   192
  0
VERTEX
  5
3B9
330
3B4
100
AcDbEntity
  8
0
100
AcDbVertex
100
AcDbPolyFaceMeshVertex
 10
-3.879351563907817
 20
15.51181096583605
 30
-11.16001755769673
 70
   192
  0
VERTEX
  5
3BA
330
3B4
100
AcDbEntity
  8
0
100
AcDbVertex
100
AcDbPolyFaceMeshVertex
 10
-3.740157466381788
 20
15.51181096583605
 30
-11.10236216336489
 70
   192
  0
VERTEX
  5
3BB
330
3B4
100
AcDbEntity
  8
0
100
AcDbVertex
100
AcDbPolyFaceMeshVertex
 10
-3.740157466381788
 20
15.47244088724256
 30
-11.10236216336489
 70
   192
  0
VERTEX
  5
3BC
330
3B4
100
AcDbEntity
  8
0
100
AcDbVertex
100
AcDbPolyFaceMeshVertex
 10
-3.600963368855758
 20
15.51181096583605
 30
-11.16001755769673
 70
   192
  0
VERTEX
  5
3BD
330
3B4
100
AcDbEntity
  8
0
100
AcDbVertex
100
AcDbPolyFaceMeshVertex
 10
-3.600963368855758
 20
15.47244088724256
 30
-11.16001755769673
 70
   192
  0
VERTEX
  5
3BE
330
3B4
100
AcDbEntity
  8
0
100
AcDbVertex
100
AcDbPolyFaceMeshVertex
 10
-3.543307073414326
 20
15.51181096583605
 30
-11.29921255633235
 70
   192
  0
VERTEX
  5
3BF
330
3B4
100
AcDbEntity
  8
0
100
AcDbVertex
100
AcDbPolyFaceMeshVertex
 10
-3.543307073414326
 20
15.47244088724256
 30
-11.29921255633235
 70
   192
  0
VERTEX
  5
3C0
330
3B4
100
AcDbEntity
  8
0
100
AcDbFaceRecord
 10
0.0
 20
0.0
 30
0.0
 70
   128
 71
     9
 72
    10
 73
     7
  0
VERTEX
  5
3C1
330
3B4
100
AcDbEntity
  8
0
100
AcDbFaceRecord
 10
0.0
 20
0.0
 30
0.0
 70
   128
 71
     8
 72
     7
 73
    10
  0
VERTEX
  5
3C2
330
3B4
100
AcDbEntity
  8
0
100
AcDbFaceRecord
 10
0.0
 20
0.0
 30
0.0
 70
   128
 71
     7
 72
     8
 73
     5
  0
VERTEX
  5
3C3
330
3B4
100
AcDbEntity
  8
0
100
AcDbFaceRecord
 10
0.0
 20
0.0
 30
0.0
 70
   128
 71
     6
 72
     5
 73
     8
  0
VERTEX
  5
3C4
330
3B4
100
AcDbEntity
  8
0
100
AcDbFaceRecord
 10
0.0
 20
0.0
 30
0.0
 70
   128
 71
     5
 72
     6
 73
     4
  0
VERTEX
  5
3C5
330
3B4
100
AcDbEntity
  8
0
100
AcDbFaceRecord
 10
0.0
 20
0.0
 30
0.0
 70
   128
 71
     1
 72
     4
 73
     6
  0
VERTEX
  5
3C6
330
3B4
100
AcDbEntity
  8
0
100
AcDbFaceRecord
 10
0.0
 20
0.0
 30
0.0
 70
   128
 71
     4
 72
     1
 73
     3
  0
VERTEX
  5
3C7
330
3B4
100
AcDbEntity
  8
0
100
AcDbFaceRecord
 10
0.0
 20
0.0
 30
0.0
 70
   128
 71
     2
 72
     3
 73
     1
  0
SEQEND
  5
3B5
330
3B4
100
AcDbEntity
  8
0
  0
POLYLINE
  5
3C8
330
1F
100
AcDbEntity
  8
0
 62
     0
100
AcDbPolyFaceMesh
 66
     1
 10
0.0
 20
0.0
 30
0.0
 70
    64
 71
    10
 72
     8
  0
VERTEX
  5
3CA
330
3C8
100
AcDbEntity
  8
0
100
AcDbVertex
100
AcDbPolyFaceMeshVertex
 10
-3.600963368855758
 20
15.47244088724256
 30
-11.43840755496797
 70
   192
  0
VERTEX
  5
3CB
330
3C8
100
AcDbEntity
  8
0
100
AcDbVertex
100
AcDbPolyFaceMeshVertex
 10
-3.543307073414326
 20
15.47244088724256
 30
-11.29921255633235
 70
   192
  0
VERTEX
  5
3CC
330
3C8
100
AcDbEntity
  8
0
100
AcDbVertex
100
AcDbPolyFaceMeshVertex
 10
-3.543307073414326
 20
15.51181096583605
 30
-11.29921255633235
 70
   192
  0
VERTEX
  5
3CD
330
3C8
100
AcDbEntity
  8
0
100
AcDbVertex
100
AcDbPolyFaceMeshVertex
 10
-3.600963368855758
 20
15.51181096583605
 30
-11.43840755496797
 70
   192
  0
VERTEX
  5
3CE
330
3C8
100
AcDbEntity
  8
0
100
AcDbVertex
100
AcDbPolyFaceMeshVertex
 10
-3.740157466381788
 20
15.51181096583605
 30
-11.49606294929981
 70
   192
  0
VERTEX
  5
3CF
330
3C8
100
AcDbEntity
  8
0
100
AcDbVertex
100
AcDbPolyFaceMeshVertex
 10
-3.740157466381788
 20
15.47244088724256
 30
-11.49606294929981
 70
   192
  0
VERTEX
  5
3D0
330
3C8
100
AcDbEntity
  8
0
100
AcDbVertex
100
AcDbPolyFaceMeshVertex
 10
-3.879351563907817
 20
15.51181096583605
 30
-11.43840755496797
 70
   192
  0
VERTEX
  5
3D1
330
3C8
100
AcDbEntity
  8
0
100
AcDbVertex
100
AcDbPolyFaceMeshVertex
 10
-3.879351563907817
 20
15.47244088724256
 30
-11.43840755496797
 70
   192
  0
VERTEX
  5
3D2
330
3C8
100
AcDbEntity
  8
0
100
AcDbVertex
100
AcDbPolyFaceMeshVertex
 10
-3.937007859349251
 20
15.51181096583605
 30
-11.29921255633235
 70
   192
  0
VERTEX
  5
3D3
330
3C8
100
AcDbEntity
  8
0
100
AcDbVertex
100
AcDbPolyFaceMeshVertex
 10
-3.937007859349251
 20
15.47244088724256
 30
-11.29921255633235
 70
   192
  0
VERTEX
  5
3D4
330
3C8
100
AcDbEntity
  8
0
100
AcDbFaceRecord
 10
0.0
 20
0.0
 30
0.0
 70
   128
 71
     9
 72
    10
 73
     7
  0
VERTEX
  5
3D5
330
3C8
100
AcDbEntity
  8
0
100
AcDbFaceRecord
 10
0.0
 20
0.0
 30
0.0
 70
   128
 71
     8
 72
     7
 73
    10
  0
VERTEX
  5
3D6
330
3C8
100
AcDbEntity
  8
0
100
AcDbFaceRecord
 10
0.0
 20
0.0
 30
0.0
 70
   128
 71
     7
 72
     8
 73
     5
  0
VERTEX
  5
3D7
330
3C8
100
AcDbEntity
  8
0
100
AcDbFaceRecord
 10
0.0
 20
0.0
 30
0.0
 70
   128
 71
     6
 72
     5
 73
     8
  0
VERTEX
  5
3D8
330
3C8
100
AcDbEntity
  8
0
100
AcDbFaceRecord
 10
0.0
 20
0.0
 30
0.0
 70
   128
 71
     5
 72
     6
 73
     4
  0
VERTEX
  5
3D9
330
3C8
100
AcDbEntity
  8
0
100
AcDbFaceRecord
 10
0.0
 20
0.0
 30
0.0
 70
   128
 71
     1
 72
     4
 73
     6
  0
VERTEX
  5
3DA
330
3C8
100
AcDbEntity
  8
0
100
AcDbFaceRecord
 10
0.0
 20
0.0
 30
0.0
 70
   128
 71
     4
 72
     1
 73
     3
  0
VERTEX
  5
3DB
330
3C8
100
AcDbEntity
  8
0
100
AcDbFaceRecord
 10
0.0
 20
0.0
 30
0.0
 70
   128
 71
     2
 72
     3
 73
     1
  0
SEQEND
  5
3C9
330
3C8
100
AcDbEntity
  8
0
  0
POLYLINE
  5
3DC
330
1F
100
AcDbEntity
  8
0
 62
     0
100
AcDbPolyFaceMesh
 66
     1
 10
0.0
 20
0.0
 30
0.0
 70
    64
 71
    10
 72
     8
  0
VERTEX
  5
3DE
330
3DC
100
AcDbEntity
  8
0
100
AcDbVertex
100
AcDbPolyFaceMeshVertex
 10
4.076201956875281
 20
0.0393700785934925
 30
-20.49072738583391
 70
   192
  0
VERTEX
  5
3DF
330
3DC
100
AcDbEntity
  8
0
100
AcDbVertex
100
AcDbPolyFaceMeshVertex
 10
4.133858252316712
 20
0.0393700785934925
 30
-20.62992118299007
 70
   192
  0
VERTEX
  5
3E0
330
3DC
100
AcDbEntity
  8
0
100
AcDbVertex
100
AcDbPolyFaceMeshVertex
 10
4.133858252316712
 20
0.0
 30
-20.62992118299007
 70
   192
  0
VERTEX
  5
3E1
330
3DC
100
AcDbEntity
  8
0
100
AcDbVertex
100
AcDbPolyFaceMeshVertex
 10
4.076201956875281
 20
0.0
 30
-20.49072738583391
 70
   192
  0
VERTEX
  5
3E2
330
3DC
100
AcDbEntity
  8
0
100
AcDbVertex
100
AcDbPolyFaceMeshVertex
 10
3.937007859349251
 20
0.0
 30
-20.43307079002261
 70
   192
  0
VERTEX
  5
3E3
330
3DC
100
AcDbEntity
  8
0
100
AcDbVertex
100
AcDbPolyFaceMeshVertex
 10
3.937007859349251
 20
0.0393700785934925
 30
-20.43307079002261
 70
   192
  0
VERTEX
  5
3E4
330
3DC
100
AcDbEntity
  8
0
100
AcDbVertex
100
AcDbPolyFaceMeshVertex
 10
3.797813461453359
 20
0.0
 30
-20.49072738583391
 70
   192
  0
VERTEX
  5
3E5
330
3DC
100
AcDbEntity
  8
0
100
AcDbVertex
100
AcDbPolyFaceMeshVertex
 10
3.797813461453359
 20
0.0393700785934925
 30
-20.49072738583391
 70
   192
  0
VERTEX
  5
3E6
330
3DC
100
AcDbEntity
  8
0
100
AcDbVertex
100
AcDbPolyFaceMeshVertex
 10
3.740157466381788
 20
0.0
 30
-20.62992118299007
 70
   192
  0
VERTEX
  5
3E7
330
3DC
100
AcDbEntity
  8
0
100
AcDbVertex
100
AcDbPolyFaceMeshVertex
 10
3.740157466381788
 20
0.0393700785934925
 30
-20.62992118299007
 70
   192
  0
VERTEX
  5
3E8
330
3DC
100
AcDbEntity
  8
0
100
AcDbFaceRecord
 10
0.0
 20
0.0
 30
0.0
 70
   128
 71
     9
 72
    10
 73
     7
  0
VERTEX
  5
3E9
330
3DC
100
AcDbEntity
  8
0
100
AcDbFaceRecord
 10
0.0
 20
0.0
 30
0.0
 70
   128
 71
     8
 72
     7
 73
    10
  0
VERTEX
  5
3EA
330
3DC
100
AcDbEntity
  8
0
100
AcDbFaceRecord
 10
0.0
 20
0.0
 30
0.0
 70
   128
 71
     7
 72
     8
 73
     5
  0
VERTEX
  5
3EB
330
3DC
100
AcDbEntity
  8
0
100
AcDbFaceRecord
 10
0.0
 20
0.0
 30
0.0
 70
   128
 71
     6
 72
     5
 73
     8
  0
VERTEX
  5
3EC
330
3DC
100
AcDbEntity
  8
0
100
AcDbFaceRecord
 10
0.0
 20
0.0
 30
0.0
 70
   128
 71
     5
 72
     6
 73
     4
  0
VERTEX
  5
3ED
330
3DC
100
AcDbEntity
  8
0
100
AcDbFaceRecord
 10
0.0
 20
0.0
 30
0.0
 70
   128
 71
     1
 72
     4
 73
     6
  0
VERTEX
  5
3EE
330
3DC
100
AcDbEntity
  8
0
100
AcDbFaceRecord
 10
0.0
 20
0.0
 30
0.0
 70
   128
 71
     4
 72
     1
 73
     3
  0
VERTEX
  5
3EF
330
3DC
100
AcDbEntity
  8
0
100
AcDbFaceRecord
 10
0.0
 20
0.0
 30
0.0
 70
   128
 71
     2
 72
     3
 73
     1
  0
SEQEND
  5
3DD
330
3DC
100
AcDbEntity
  8
0
  0
POLYLINE
  5
3F0
330
1F
100
AcDbEntity
  8
0
 62
     0
100
AcDbPolyFaceMesh
 66
     1
 10
0.0
 20
0.0
 30
0.0
 70
    64
 71
    10
 72
     8
  0
VERTEX
  5
3F2
330
3F0
100
AcDbEntity
  8
0
100
AcDbVertex
100
AcDbPolyFaceMeshVertex
 10
-0.1391942477109609
 20
15.47244088724256
 30
-20.49072738583391
 70
   192
  0
VERTEX
  5
3F3
330
3F0
100
AcDbEntity
  8
0
100
AcDbVertex
100
AcDbPolyFaceMeshVertex
 10
-0.1968503929674625
 20
15.47244088724256
 30
-20.62992118299007
 70
   192
  0
VERTEX
  5
3F4
330
3F0
100
AcDbEntity
  8
0
100
AcDbVertex
100
AcDbPolyFaceMeshVertex
 10
-0.1968503929674625
 20
15.51181096583605
 30
-20.62992118299007
 70
   192
  0
VERTEX
  5
3F5
330
3F0
100
AcDbEntity
  8
0
100
AcDbVertex
100
AcDbPolyFaceMeshVertex
 10
-0.1391942477109609
 20
15.51181096583605
 30
-20.49072738583391
 70
   192
  0
VERTEX
  5
3F6
330
3F0
100
AcDbEntity
  8
0
100
AcDbVertex
100
AcDbPolyFaceMeshVertex
 10
-0.0000000000005023
 20
15.51181096583605
 30
-20.43307079002261
 70
   192
  0
VERTEX
  5
3F7
330
3F0
100
AcDbEntity
  8
0
100
AcDbVertex
100
AcDbPolyFaceMeshVertex
 10
-0.0000000000005023
 20
15.47244088724256
 30
-20.43307079002261
 70
   192
  0
VERTEX
  5
3F8
330
3F0
100
AcDbEntity
  8
0
100
AcDbVertex
100
AcDbPolyFaceMeshVertex
 10
0.1391942477109609
 20
15.51181096583605
 30
-20.49072738583391
 70
   192
  0
VERTEX
  5
3F9
330
3F0
100
AcDbEntity
  8
0
100
AcDbVertex
100
AcDbPolyFaceMeshVertex
 10
0.1391942477109609
 20
15.47244088724256
 30
-20.49072738583391
 70
   192
  0
VERTEX
  5
3FA
330
3F0
100
AcDbEntity
  8
0
100
AcDbVertex
100
AcDbPolyFaceMeshVertex
 10
0.1968503929674625
 20
15.51181096583605
 30
-20.62992118299007
 70
   192
  0
VERTEX
  5
3FB
330
3F0
100
AcDbEntity
  8
0
100
AcDbVertex
100
AcDbPolyFaceMeshVertex
 10
0.1968503929674625
 20
15.47244088724256
 30
-20.62992118299007
 70
   192
  0
VERTEX
  5
3FC
330
3F0
100
AcDbEntity
  8
0
100
AcDbFaceRecord
 10
0.0
 20
0.0
 30
0.0
 70
   128
 71
     9
 72
    10
 73
     7
  0
VERTEX
  5
3FD
330
3F0
100
AcDbEntity
  8
0
100
AcDbFaceRecord
 10
0.0
 20
0.0
 30
0.0
 70
   128
 71
     8
 72
     7
 73
    10
  0
VERTEX
  5
3FE
330
3F0
100
AcDbEntity
  8
0
100
AcDbFaceRecord
 10
0.0
 20
0.0
 30
0.0
 70
   128
 71
     7
 72
     8
 73
     5
  0
VERTEX
  5
3FF
330
3F0
100
AcDbEntity
  8
0
100
AcDbFaceRecord
 10
0.0
 20
0.0
 30
0.0
 70
   128
 71
     6
 72
     5
 73
     8
  0
VERTEX
  5
400
330
3F0
100
AcDbEntity
  8
0
100
AcDbFaceRecord
 10
0.0
 20
0.0
 30
0.0
 70
   128
 71
     5
 72
     6
 73
     4
  0
VERTEX
  5
401
330
3F0
100
AcDbEntity
  8
0
100
AcDbFaceRecord
 10
0.0
 20
0.0
 30
0.0
 70
   128
 71
     1
 72
     4
 73
     6
  0
VERTEX
  5
402
330
3F0
100
AcDbEntity
  8
0
100
AcDbFaceRecord
 10
0.0
 20
0.0
 30
0.0
 70
   128
 71
     4
 72
     1
 73
     3
  0
VERTEX
  5
403
330
3F0
100
AcDbEntity
  8
0
100
AcDbFaceRecord
 10
0.0
 20
0.0
 30
0.0
 70
   128
 71
     2
 72
     3
 73
     1
  0
SEQEND
  5
3F1
330
3F0
100
AcDbEntity
  8
0
  0
POLYLINE
  5
404
330
1F
100
AcDbEntity
  8
0
 62
     0
100
AcDbPolyFaceMesh
 66
     1
 10
0.0
 20
0.0
 30
0.0
 70
    64
 71
    10
 72
     8
  0
VERTEX
  5
406
330
404
100
AcDbEntity
  8
0
100
AcDbVertex
100
AcDbPolyFaceMeshVertex
 10
0.1391942477109609
 20
15.47244088724256
 30
-20.76911738310514
 70
   192
  0
VERTEX
  5
407
330
404
100
AcDbEntity
  8
0
100
AcDbVertex
100
AcDbPolyFaceMeshVertex
 10
0.1968503929674625
 20
15.47244088724256
 30
-20.62992118299007
 70
   192
  0
VERTEX
  5
408
330
404
100
AcDbEntity
  8
0
100
AcDbVertex
100
AcDbPolyFaceMeshVertex
 10
0.1968503929674625
 20
15.51181096583605
 30
-20.62992118299007
 70
   192
  0
VERTEX
  5
409
330
404
100
AcDbEntity
  8
0
100
AcDbVertex
100
AcDbPolyFaceMeshVertex
 10
0.1391942477109609
 20
15.51181096583605
 30
-20.76911738310514
 70
   192
  0
VERTEX
  5
40A
330
404
100
AcDbEntity
  8
0
100
AcDbVertex
100
AcDbPolyFaceMeshVertex
 10
0.0000000000015068
 20
15.51181096583605
 30
-20.82677157595754
 70
   192
  0
VERTEX
  5
40B
330
404
100
AcDbEntity
  8
0
100
AcDbVertex
100
AcDbPolyFaceMeshVertex
 10
0.0000000000015068
 20
15.47244088724256
 30
-20.82677157595754
 70
   192
  0
VERTEX
  5
40C
330
404
100
AcDbEntity
  8
0
100
AcDbVertex
100
AcDbPolyFaceMeshVertex
 10
-0.1391942477109609
 20
15.51181096583605
 30
-20.76911738310514
 70
   192
  0
VERTEX
  5
40D
330
404
100
AcDbEntity
  8
0
100
AcDbVertex
100
AcDbPolyFaceMeshVertex
 10
-0.1391942477109609
 20
15.47244088724256
 30
-20.76911738310514
 70
   192
  0
VERTEX
  5
40E
330
404
100
AcDbEntity
  8
0
100
AcDbVertex
100
AcDbPolyFaceMeshVertex
 10
-0.1968503929674625
 20
15.51181096583605
 30
-20.62992118299007
 70
   192
  0
VERTEX
  5
40F
330
404
100
AcDbEntity
  8
0
100
AcDbVertex
100
AcDbPolyFaceMeshVertex
 10
-0.1968503929674625
 20
15.47244088724256
 30
-20.62992118299007
 70
   192
  0
VERTEX
  5
410
330
404
100
AcDbEntity
  8
0
100
AcDbFaceRecord
 10
0.0
 20
0.0
 30
0.0
 70
   128
 71
     9
 72
    10
 73
     7
  0
VERTEX
  5
411
330
404
100
AcDbEntity
  8
0
100
AcDbFaceRecord
 10
0.0
 20
0.0
 30
0.0
 70
   128
 71
     8
 72
     7
 73
    10
  0
VERTEX
  5
412
330
404
100
AcDbEntity
  8
0
100
AcDbFaceRecord
 10
0.0
 20
0.0
 30
0.0
 70
   128
 71
     7
 72
     8
 73
     5
  0
VERTEX
  5
413
330
404
100
AcDbEntity
  8
0
100
AcDbFaceRecord
 10
0.0
 20
0.0
 30
0.0
 70
   128
 71
     6
 72
     5
 73
     8
  0
VERTEX
  5
414
330
404
100
AcDbEntity
  8
0
100
AcDbFaceRecord
 10
0.0
 20
0.0
 30
0.0
 70
   128
 71
     5
 72
     6
 73
     4
  0
VERTEX
  5
415
330
404
100
AcDbEntity
  8
0
100
AcDbFaceRecord
 10
0.0
 20
0.0
 30
0.0
 70
   128
 71
     1
 72
     4
 73
     6
  0
VERTEX
  5
416
330
404
100
AcDbEntity
  8
0
100
AcDbFaceRecord
 10
0.0
 20
0.0
 30
0.0
 70
   128
 71
     4
 72
     1
 73
     3
  0
VERTEX
  5
417
330
404
100
AcDbEntity
  8
0
100
AcDbFaceRecord
 10
0.0
 20
0.0
 30
0.0
 70
   128
 71
     2
 72
     3
 73
     1
  0
SEQEND
  5
405
330
404
100
AcDbEntity
  8
0
  0
POLYLINE
  5
418
330
1F
100
AcDbEntity
  8
0
 62
     0
100
AcDbPolyFaceMesh
 66
     1
 10
0.0
 20
0.0
 30
0.0
 70
    64
 71
    10
 72
     8
  0
VERTEX
  5
41A
330
418
100
AcDbEntity
  8
0
100
AcDbVertex
100
AcDbPolyFaceMeshVertex
 10
4.076201956875281
 20
0.0393700785934925
 30
-1.593089210402709
 70
   192
  0
VERTEX
  5
41B
330
418
100
AcDbEntity
  8
0
100
AcDbVertex
100
AcDbPolyFaceMeshVertex
 10
4.133858252316712
 20
0.0393700785934925
 30
-1.73228345811367
 70
   192
  0
VERTEX
  5
41C
330
418
100
AcDbEntity
  8
0
100
AcDbVertex
100
AcDbPolyFaceMeshVertex
 10
4.133858252316712
 20
0.0
 30
-1.73228345811367
 70
   192
  0
VERTEX
  5
41D
330
418
100
AcDbEntity
  8
0
100
AcDbVertex
100
AcDbPolyFaceMeshVertex
 10
4.076201956875281
 20
0.0
 30
-1.593089210402709
 70
   192
  0
VERTEX
  5
41E
330
418
100
AcDbEntity
  8
0
100
AcDbVertex
100
AcDbPolyFaceMeshVertex
 10
3.937007859349251
 20
0.0
 30
-1.535433065146207
 70
   192
  0
VERTEX
  5
41F
330
418
100
AcDbEntity
  8
0
100
AcDbVertex
100
AcDbPolyFaceMeshVertex
 10
3.937007859349251
 20
0.0393700785934925
 30
-1.535433065146207
 70
   192
  0
VERTEX
  5
420
330
418
100
AcDbEntity
  8
0
100
AcDbVertex
100
AcDbPolyFaceMeshVertex
 10
3.797813461453359
 20
0.0
 30
-1.593089210402709
 70
   192
  0
VERTEX
  5
421
330
418
100
AcDbEntity
  8
0
100
AcDbVertex
100
AcDbPolyFaceMeshVertex
 10
3.797813461453359
 20
0.0393700785934925
 30
-1.593089210402709
 70
   192
  0
VERTEX
  5
422
330
418
100
AcDbEntity
  8
0
100
AcDbVertex
100
AcDbPolyFaceMeshVertex
 10
3.740157466381788
 20
0.0
 30
-1.73228345811367
 70
   192
  0
VERTEX
  5
423
330
418
100
AcDbEntity
  8
0
100
AcDbVertex
100
AcDbPolyFaceMeshVertex
 10
3.740157466381788
 20
0.0393700785934925
 30
-1.73228345811367
 70
   192
  0
VERTEX
  5
424
330
418
100
AcDbEntity
  8
0
100
AcDbFaceRecord
 10
0.0
 20
0.0
 30
0.0
 70
   128
 71
     9
 72
    10
 73
     7
  0
VERTEX
  5
425
330
418
100
AcDbEntity
  8
0
100
AcDbFaceRecord
 10
0.0
 20
0.0
 30
0.0
 70
   128
 71
     8
 72
     7
 73
    10
  0
VERTEX
  5
426
330
418
100
AcDbEntity
  8
0
100
AcDbFaceRecord
 10
0.0
 20
0.0
 30
0.0
 70
   128
 71
     7
 72
     8
 73
     5
  0
VERTEX
  5
427
330
418
100
AcDbEntity
  8
0
100
AcDbFaceRecord
 10
0.0
 20
0.0
 30
0.0
 70
   128
 71
     6
 72
     5
 73
     8
  0
VERTEX
  5
428
330
418
100
AcDbEntity
  8
0
100
AcDbFaceRecord
 10
0.0
 20
0.0
 30
0.0
 70
   128
 71
     5
 72
     6
 73
     4
  0
VERTEX
  5
429
330
418
100
AcDbEntity
  8
0
100
AcDbFaceRecord
 10
0.0
 20
0.0
 30
0.0
 70
   128
 71
     1
 72
     4
 73
     6
  0
VERTEX
  5
42A
330
418
100
AcDbEntity
  8
0
100
AcDbFaceRecord
 10
0.0
 20
0.0
 30
0.0
 70
   128
 71
     4
 72
     1
 73
     3
  0
VERTEX
  5
42B
330
418
100
AcDbEntity
  8
0
100
AcDbFaceRecord
 10
0.0
 20
0.0
 30
0.0
 70
   128
 71
     2
 72
     3
 73
     1
  0
SEQEND
  5
419
330
418
100
AcDbEntity
  8
0
  0
POLYLINE
  5
42C
330
1F
100
AcDbEntity
  8
0
 62
     0
100
AcDbPolyFaceMesh
 66
     1
 10
0.0
 20
0.0
 30
0.0
 70
    64
 71
    10
 72
     8
  0
VERTEX
  5
42E
330
42C
100
AcDbEntity
  8
0
100
AcDbVertex
100
AcDbPolyFaceMeshVertex
 10
3.797813461453359
 20
0.0393700785934925
 30
-20.76911738310514
 70
   192
  0
VERTEX
  5
42F
330
42C
100
AcDbEntity
  8
0
100
AcDbVertex
100
AcDbPolyFaceMeshVertex
 10
3.740157466381788
 20
0.0393700785934925
 30
-20.62992118299007
 70
   192
  0
VERTEX
  5
430
330
42C
100
AcDbEntity
  8
0
100
AcDbVertex
100
AcDbPolyFaceMeshVertex
 10
3.740157466381788
 20
0.0
 30
-20.62992118299007
 70
   192
  0
VERTEX
  5
431
330
42C
100
AcDbEntity
  8
0
100
AcDbVertex
100
AcDbPolyFaceMeshVertex
 10
3.797813461453359
 20
0.0
 30
-20.76911738310514
 70
   192
  0
VERTEX
  5
432
330
42C
100
AcDbEntity
  8
0
100
AcDbVertex
100
AcDbPolyFaceMeshVertex
 10
3.937007859349251
 20
0.0
 30
-20.82677157595754
 70
   192
  0
VERTEX
  5
433
330
42C
100
AcDbEntity
  8
0
100
AcDbVertex
100
AcDbPolyFaceMeshVertex
 10
3.937007859349251
 20
0.0393700785934925
 30
-20.82677157595754
 70
   192
  0
VERTEX
  5
434
330
42C
100
AcDbEntity
  8
0
100
AcDbVertex
100
AcDbPolyFaceMeshVertex
 10
4.076201956875281
 20
0.0
 30
-20.76911738310514
 70
   192
  0
VERTEX
  5
435
330
42C
100
AcDbEntity
  8
0
100
AcDbVertex
100
AcDbPolyFaceMeshVertex
 10
4.076201956875281
 20
0.0393700785934925
 30
-20.76911738310514
 70
   192
  0
VERTEX
  5
436
330
42C
100
AcDbEntity
  8
0
100
AcDbVertex
100
AcDbPolyFaceMeshVertex
 10
4.133858252316712
 20
0.0
 30
-20.62992118299007
 70
   192
  0
VERTEX
  5
437
330
42C
100
AcDbEntity
  8
0
100
AcDbVertex
100
AcDbPolyFaceMeshVertex
 10
4.133858252316712
 20
0.0393700785934925
 30
-20.62992118299007
 70
   192
  0
VERTEX
  5
438
330
42C
100
AcDbEntity
  8
0
100
AcDbFaceRecord
 10
0.0
 20
0.0
 30
0.0
 70
   128
 71
     9
 72
    10
 73
     7
  0
VERTEX
  5
439
330
42C
100
AcDbEntity
  8
0
100
AcDbFaceRecord
 10
0.0
 20
0.0
 30
0.0
 70
   128
 71
     8
 72
     7
 73
    10
  0
VERTEX
  5
43A
330
42C
100
AcDbEntity
  8
0
100
AcDbFaceRecord
 10
0.0
 20
0.0
 30
0.0
 70
   128
 71
     7
 72
     8
 73
     5
  0
VERTEX
  5
43B
330
42C
100
AcDbEntity
  8
0
100
AcDbFaceRecord
 10
0.0
 20
0.0
 30
0.0
 70
   128
 71
     6
 72
     5
 73
     8
  0
VERTEX
  5
43C
330
42C
100
AcDbEntity
  8
0
100
AcDbFaceRecord
 10
0.0
 20
0.0
 30
0.0
 70
   128
 71
     5
 72
     6
 73
     4
  0
VERTEX
  5
43D
330
42C
100
AcDbEntity
  8
0
100
AcDbFaceRecord
 10
0.0
 20
0.0
 30
0.0
 70
   128
 71
     1
 72
     4
 73
     6
  0
VERTEX
  5
43E
330
42C
100
AcDbEntity
  8
0
100
AcDbFaceRecord
 10
0.0
 20
0.0
 30
0.0
 70
   128
 71
     4
 72
     1
 73
     3
  0
VERTEX
  5
43F
330
42C
100
AcDbEntity
  8
0
100
AcDbFaceRecord
 10
0.0
 20
0.0
 30
0.0
 70
   128
 71
     2
 72
     3
 73
     1
  0
SEQEND
  5
42D
330
42C
100
AcDbEntity
  8
0
  0
POLYLINE
  5
440
330
1F
100
AcDbEntity
  8
0
 62
     0
100
AcDbPolyFaceMesh
 66
     1
 10
0.0
 20
0.0
 30
0.0
 70
    64
 71
    10
 72
     8
  0
VERTEX
  5
442
330
440
100
AcDbEntity
  8
0
100
AcDbVertex
100
AcDbPolyFaceMeshVertex
 10
0.1391942477109609
 20
0.0393700785934925
 30
-11.12064868058269
 70
   192
  0
VERTEX
  5
443
330
440
100
AcDbEntity
  8
0
100
AcDbVertex
100
AcDbPolyFaceMeshVertex
 10
0.1968503929674625
 20
0.0393700785934925
 30
-11.25984247773886
 70
   192
  0
VERTEX
  5
444
330
440
100
AcDbEntity
  8
0
100
AcDbVertex
100
AcDbPolyFaceMeshVertex
 10
0.1968503929674625
 20
0.0
 30
-11.25984247773886
 70
   192
  0
VERTEX
  5
445
330
440
100
AcDbEntity
  8
0
100
AcDbVertex
100
AcDbPolyFaceMeshVertex
 10
0.1391942477109609
 20
0.0
 30
-11.12064868058269
 70
   192
  0
VERTEX
  5
446
330
440
100
AcDbEntity
  8
0
100
AcDbVertex
100
AcDbPolyFaceMeshVertex
 10
0.0000000000005023
 20
0.0
 30
-11.0629920847714
 70
   192
  0
VERTEX
  5
447
330
440
100
AcDbEntity
  8
0
100
AcDbVertex
100
AcDbPolyFaceMeshVertex
 10
0.0000000000005023
 20
0.0393700785934925
 30
-11.0629920847714
 70
   192
  0
VERTEX
  5
448
330
440
100
AcDbEntity
  8
0
100
AcDbVertex
100
AcDbPolyFaceMeshVertex
 10
-0.1391942477109609
 20
0.0
 30
-11.12064868058269
 70
   192
  0
VERTEX
  5
449
330
440
100
AcDbEntity
  8
0
100
AcDbVertex
100
AcDbPolyFaceMeshVertex
 10
-0.1391942477109609
 20
0.0393700785934925
 30
-11.12064868058269
 70
   192
  0
VERTEX
  5
44A
330
440
100
AcDbEntity
  8
0
100
AcDbVertex
100
AcDbPolyFaceMeshVertex
 10
-0.1968503929674625
 20
0.0
 30
-11.25984247773886
 70
   192
  0
VERTEX
  5
44B
330
440
100
AcDbEntity
  8
0
100
AcDbVertex
100
AcDbPolyFaceMeshVertex
 10
-0.1968503929674625
 20
0.0393700785934925
 30
-11.25984247773886
 70
   192
  0
VERTEX
  5
44C
330
440
100
AcDbEntity
  8
0
100
AcDbFaceRecord
 10
0.0
 20
0.0
 30
0.0
 70
   128
 71
     9
 72
    10
 73
     7
  0
VERTEX
  5
44D
330
440
100
AcDbEntity
  8
0
100
AcDbFaceRecord
 10
0.0
 20
0.0
 30
0.0
 70
   128
 71
     8
 72
     7
 73
    10
  0
VERTEX
  5
44E
330
440
100
AcDbEntity
  8
0
100
AcDbFaceRecord
 10
0.0
 20
0.0
 30
0.0
 70
   128
 71
     7
 72
     8
 73
     5
  0
VERTEX
  5
44F
330
440
100
AcDbEntity
  8
0
100
AcDbFaceRecord
 10
0.0
 20
0.0
 30
0.0
 70
   128
 71
     6
 72
     5
 73
     8
  0
VERTEX
  5
450
330
440
100
AcDbEntity
  8
0
100
AcDbFaceRecord
 10
0.0
 20
0.0
 30
0.0
 70
   128
 71
     5
 72
     6
 73
     4
  0
VERTEX
  5
451
330
440
100
AcDbEntity
  8
0
100
AcDbFaceRecord
 10
0.0
 20
0.0
 30
0.0
 70
   128
 71
     1
 72
     4
 73
     6
  0
VERTEX
  5
452
330
440
100
AcDbEntity
  8
0
100
AcDbFaceRecord
 10
0.0
 20
0.0
 30
0.0
 70
   128
 71
     4
 72
     1
 73
     3
  0
VERTEX
  5
453
330
440
100
AcDbEntity
  8
0
100
AcDbFaceRecord
 10
0.0
 20
0.0
 30
0.0
 70
   128
 71
     2
 72
     3
 73
     1
  0
SEQEND
  5
441
330
440
100
AcDbEntity
  8
0
  0
POLYLINE
  5
454
330
1F
100
AcDbEntity
  8
0
 62
     0
100
AcDbPolyFaceMesh
 66
     1
 10
0.0
 20
0.0
 30
0.0
 70
    64
 71
    10
 72
     8
  0
VERTEX
  5
456
330
454
100
AcDbEntity
  8
0
100
AcDbVertex
100
AcDbPolyFaceMeshVertex
 10
3.797813461453359
 20
0.0393700785934925
 30
-1.87147770582463
 70
   192
  0
VERTEX
  5
457
330
454
100
AcDbEntity
  8
0
100
AcDbVertex
100
AcDbPolyFaceMeshVertex
 10
3.740157466381788
 20
0.0393700785934925
 30
-1.73228345811367
 70
   192
  0
VERTEX
  5
458
330
454
100
AcDbEntity
  8
0
100
AcDbVertex
100
AcDbPolyFaceMeshVertex
 10
3.740157466381788
 20
0.0
 30
-1.73228345811367
 70
   192
  0
VERTEX
  5
459
330
454
100
AcDbEntity
  8
0
100
AcDbVertex
100
AcDbPolyFaceMeshVertex
 10
3.797813461453359
 20
0.0
 30
-1.87147770582463
 70
   192
  0
VERTEX
  5
45A
330
454
100
AcDbEntity
  8
0
100
AcDbVertex
100
AcDbPolyFaceMeshVertex
 10
3.937007859349251
 20
0.0
 30
-1.929133851081133
 70
   192
  0
VERTEX
  5
45B
330
454
100
AcDbEntity
  8
0
100
AcDbVertex
100
AcDbPolyFaceMeshVertex
 10
3.937007859349251
 20
0.0393700785934925
 30
-1.929133851081133
 70
   192
  0
VERTEX
  5
45C
330
454
100
AcDbEntity
  8
0
100
AcDbVertex
100
AcDbPolyFaceMeshVertex
 10
4.076201956875281
 20
0.0
 30
-1.87147770582463
 70
   192
  0
VERTEX
  5
45D
330
454
100
AcDbEntity
  8
0
100
AcDbVertex
100
AcDbPolyFaceMeshVertex
 10
4.076201956875281
 20
0.0393700785934925
 30
-1.87147770582463
 70
   192
  0
VERTEX
  5
45E
330
454
100
AcDbEntity
  8
0
100
AcDbVertex
100
AcDbPolyFaceMeshVertex
 10
4.133858252316712
 20
0.0
 30
-1.73228345811367
 70
   192
  0
VERTEX
  5
45F
330
454
100
AcDbEntity
  8
0
100
AcDbVertex
100
AcDbPolyFaceMeshVertex
 10
4.133858252316712
 20
0.0393700785934925
 30
-1.73228345811367
 70
   192
  0
VERTEX
  5
460
330
454
100
AcDbEntity
  8
0
100
AcDbFaceRecord
 10
0.0
 20
0.0
 30
0.0
 70
   128
 71
     9
 72
    10
 73
     7
  0
VERTEX
  5
461
330
454
100
AcDbEntity
  8
0
100
AcDbFaceRecord
 10
0.0
 20
0.0
 30
0.0
 70
   128
 71
     8
 72
     7
 73
    10
  0
VERTEX
  5
462
330
454
100
AcDbEntity
  8
0
100
AcDbFaceRecord
 10
0.0
 20
0.0
 30
0.0
 70
   128
 71
     7
 72
     8
 73
     5
  0
VERTEX
  5
463
330
454
100
AcDbEntity
  8
0
100
AcDbFaceRecord
 10
0.0
 20
0.0
 30
0.0
 70
   128
 71
     6
 72
     5
 73
     8
  0
VERTEX
  5
464
330
454
100
AcDbEntity
  8
0
100
AcDbFaceRecord
 10
0.0
 20
0.0
 30
0.0
 70
   128
 71
     5
 72
     6
 73
     4
  0
VERTEX
  5
465
330
454
100
AcDbEntity
  8
0
100
AcDbFaceRecord
 10
0.0
 20
0.0
 30
0.0
 70
   128
 71
     1
 72
     4
 73
     6
  0
VERTEX
  5
466
330
454
100
AcDbEntity
  8
0
100
AcDbFaceRecord
 10
0.0
 20
0.0
 30
0.0
 70
   128
 71
     4
 72
     1
 73
     3
  0
VERTEX
  5
467
330
454
100
AcDbEntity
  8
0
100
AcDbFaceRecord
 10
0.0
 20
0.0
 30
0.0
 70
   128
 71
     2
 72
     3
 73
     1
  0
SEQEND
  5
455
330
454
100
AcDbEntity
  8
0
  0
POLYLINE
  5
468
330
1F
100
AcDbEntity
  8
0
 62
     0
100
AcDbPolyFaceMesh
 66
     1
 10
0.0
 20
0.0
 30
0.0
 70
    64
 71
    10
 72
     8
  0
VERTEX
  5
46A
330
468
100
AcDbEntity
  8
0
100
AcDbVertex
100
AcDbPolyFaceMeshVertex
 10
-0.1391942477109609
 20
0.0393700785934925
 30
-11.39903627489503
 70
   192
  0
VERTEX
  5
46B
330
468
100
AcDbEntity
  8
0
100
AcDbVertex
100
AcDbPolyFaceMeshVertex
 10
-0.1968503929674625
 20
0.0393700785934925
 30
-11.25984247773886
 70
   192
  0
VERTEX
  5
46C
330
468
100
AcDbEntity
  8
0
100
AcDbVertex
100
AcDbPolyFaceMeshVertex
 10
-0.1968503929674625
 20
0.0
 30
-11.25984247773886
 70
   192
  0
VERTEX
  5
46D
330
468
100
AcDbEntity
  8
0
100
AcDbVertex
100
AcDbPolyFaceMeshVertex
 10
-0.1391942477109609
 20
0.0
 30
-11.39903627489503
 70
   192
  0
VERTEX
  5
46E
330
468
100
AcDbEntity
  8
0
100
AcDbVertex
100
AcDbPolyFaceMeshVertex
 10
-0.0000000000015068
 20
0.0
 30
-11.45669287070632
 70
   192
  0
VERTEX
  5
46F
330
468
100
AcDbEntity
  8
0
100
AcDbVertex
100
AcDbPolyFaceMeshVertex
 10
-0.0000000000015068
 20
0.0393700785934925
 30
-11.45669287070632
 70
   192
  0
VERTEX
  5
470
330
468
100
AcDbEntity
  8
0
100
AcDbVertex
100
AcDbPolyFaceMeshVertex
 10
0.1391942477109609
 20
0.0
 30
-11.39903627489503
 70
   192
  0
VERTEX
  5
471
330
468
100
AcDbEntity
  8
0
100
AcDbVertex
100
AcDbPolyFaceMeshVertex
 10
0.1391942477109609
 20
0.0393700785934925
 30
-11.39903627489503
 70
   192
  0
VERTEX
  5
472
330
468
100
AcDbEntity
  8
0
100
AcDbVertex
100
AcDbPolyFaceMeshVertex
 10
0.1968503929674625
 20
0.0
 30
-11.25984247773886
 70
   192
  0
VERTEX
  5
473
330
468
100
AcDbEntity
  8
0
100
AcDbVertex
100
AcDbPolyFaceMeshVertex
 10
0.1968503929674625
 20
0.0393700785934925
 30
-11.25984247773886
 70
   192
  0
VERTEX
  5
474
330
468
100
AcDbEntity
  8
0
100
AcDbFaceRecord
 10
0.0
 20
0.0
 30
0.0
 70
   128
 71
     9
 72
    10
 73
     7
  0
VERTEX
  5
475
330
468
100
AcDbEntity
  8
0
100
AcDbFaceRecord
 10
0.0
 20
0.0
 30
0.0
 70
   128
 71
     8
 72
     7
 73
    10
  0
VERTEX
  5
476
330
468
100
AcDbEntity
  8
0
100
AcDbFaceRecord
 10
0.0
 20
0.0
 30
0.0
 70
   128
 71
     7
 72
     8
 73
     5
  0
VERTEX
  5
477
330
468
100
AcDbEntity
  8
0
100
AcDbFaceRecord
 10
0.0
 20
0.0
 30
0.0
 70
   128
 71
     6
 72
     5
 73
     8
  0
VERTEX
  5
478
330
468
100
AcDbEntity
  8
0
100
AcDbFaceRecord
 10
0.0
 20
0.0
 30
0.0
 70
   128
 71
     5
 72
     6
 73
     4
  0
VERTEX
  5
479
330
468
100
AcDbEntity
  8
0
100
AcDbFaceRecord
 10
0.0
 20
0.0
 30
0.0
 70
   128
 71
     1
 72
     4
 73
     6
  0
VERTEX
  5
47A
330
468
100
AcDbEntity
  8
0
100
AcDbFaceRecord
 10
0.0
 20
0.0
 30
0.0
 70
   128
 71
     4
 72
     1
 73
     3
  0
VERTEX
  5
47B
330
468
100
AcDbEntity
  8
0
100
AcDbFaceRecord
 10
0.0
 20
0.0
 30
0.0
 70
   128
 71
     2
 72
     3
 73
     1
  0
SEQEND
  5
469
330
468
100
AcDbEntity
  8
0
  0
POLYLINE
  5
47C
330
1F
100
AcDbEntity
  8
0
 62
     0
100
AcDbPolyFaceMesh
 66
     1
 10
0.0
 20
0.0
 30
0.0
 70
    64
 71
    10
 72
     8
  0
VERTEX
  5
47E
330
47C
100
AcDbEntity
  8
0
100
AcDbVertex
100
AcDbPolyFaceMeshVertex
 10
2.851962281663844
 20
6.286763445645249
 30
-22.55905503407121
 70
   192
  0
VERTEX
  5
47F
330
47C
100
AcDbEntity
  8
0
100
AcDbVertex
100
AcDbPolyFaceMeshVertex
 10
2.751771511129419
 20
6.30669298600992
 30
-22.55905503407121
 70
   192
  0
VERTEX
  5
480
330
47C
100
AcDbEntity
  8
0
100
AcDbVertex
100
AcDbPolyFaceMeshVertex
 10
2.751771511129419
 20
6.30669298600992
 30
-22.5984251126647
 70
   192
  0
VERTEX
  5
481
330
47C
100
AcDbEntity
  8
0
100
AcDbVertex
100
AcDbPolyFaceMeshVertex
 10
2.851962281663844
 20
6.286763445645249
 30
-22.5984251126647
 70
   192
  0
VERTEX
  5
482
330
47C
100
AcDbEntity
  8
0
100
AcDbVertex
100
AcDbPolyFaceMeshVertex
 10
2.936899970219997
 20
6.230009761640076
 30
-22.5984251126647
 70
   192
  0
VERTEX
  5
483
330
47C
100
AcDbEntity
  8
0
100
AcDbVertex
100
AcDbPolyFaceMeshVertex
 10
2.936899970219997
 20
6.230009761640076
 30
-22.55905503407121
 70
   192
  0
VERTEX
  5
484
330
47C
100
AcDbEntity
  8
0
100
AcDbVertex
100
AcDbPolyFaceMeshVertex
 10
2.99365365422517
 20
6.145072974193512
 30
-22.5984251126647
 70
   192
  0
VERTEX
  5
485
330
47C
100
AcDbEntity
  8
0
100
AcDbVertex
100
AcDbPolyFaceMeshVertex
 10
2.99365365422517
 20
6.145072974193512
 30
-22.55905503407121
 70
   192
  0
VERTEX
  5
486
330
47C
100
AcDbEntity
  8
0
100
AcDbVertex
100
AcDbPolyFaceMeshVertex
 10
3.013582593850116
 20
6.044881602919361
 30
-22.5984251126647
 70
   192
  0
VERTEX
  5
487
330
47C
100
AcDbEntity
  8
0
100
AcDbVertex
100
AcDbPolyFaceMeshVertex
 10
3.013582593850116
 20
6.044881602919361
 30
-22.55905503407121
 70
   192
  0
VERTEX
  5
488
330
47C
100
AcDbEntity
  8
0
100
AcDbFaceRecord
 10
0.0
 20
0.0
 30
0.0
 70
   128
 71
     9
 72
    10
 73
     7
  0
VERTEX
  5
489
330
47C
100
AcDbEntity
  8
0
100
AcDbFaceRecord
 10
0.0
 20
0.0
 30
0.0
 70
   128
 71
     8
 72
     7
 73
    10
  0
VERTEX
  5
48A
330
47C
100
AcDbEntity
  8
0
100
AcDbFaceRecord
 10
0.0
 20
0.0
 30
0.0
 70
   128
 71
     7
 72
     8
 73
     5
  0
VERTEX
  5
48B
330
47C
100
AcDbEntity
  8
0
100
AcDbFaceRecord
 10
0.0
 20
0.0
 30
0.0
 70
   128
 71
     6
 72
     5
 73
     8
  0
VERTEX
  5
48C
330
47C
100
AcDbEntity
  8
0
100
AcDbFaceRecord
 10
0.0
 20
0.0
 30
0.0
 70
   128
 71
     5
 72
     6
 73
     4
  0
VERTEX
  5
48D
330
47C
100
AcDbEntity
  8
0
100
AcDbFaceRecord
 10
0.0
 20
0.0
 30
0.0
 70
   128
 71
     1
 72
     4
 73
     6
  0
VERTEX
  5
48E
330
47C
100
AcDbEntity
  8
0
100
AcDbFaceRecord
 10
0.0
 20
0.0
 30
0.0
 70
   128
 71
     4
 72
     1
 73
     3
  0
VERTEX
  5
48F
330
47C
100
AcDbEntity
  8
0
100
AcDbFaceRecord
 10
0.0
 20
0.0
 30
0.0
 70
   128
 71
     2
 72
     3
 73
     1
  0
SEQEND
  5
47D
330
47C
100
AcDbEntity
  8
0
  0
POLYLINE
  5
490
330
1F
100
AcDbEntity
  8
0
 62
     0
100
AcDbPolyFaceMesh
 66
     1
 10
0.0
 20
0.0
 30
0.0
 70
    64
 71
    10
 72
     8
  0
VERTEX
  5
492
330
490
100
AcDbEntity
  8
0
100
AcDbVertex
100
AcDbPolyFaceMeshVertex
 10
-2.99365365422517
 20
6.145072974193512
 30
-22.55905503407121
 70
   192
  0
VERTEX
  5
493
330
490
100
AcDbEntity
  8
0
100
AcDbVertex
100
AcDbPolyFaceMeshVertex
 10
-3.013582593850116
 20
6.044881602919361
 30
-22.55905503407121
 70
   192
  0
VERTEX
  5
494
330
490
100
AcDbEntity
  8
0
100
AcDbVertex
100
AcDbPolyFaceMeshVertex
 10
-3.013582593850116
 20
6.044881602919361
 30
-22.5984251126647
 70
   192
  0
VERTEX
  5
495
330
490
100
AcDbEntity
  8
0
100
AcDbVertex
100
AcDbPolyFaceMeshVertex
 10
-2.99365365422517
 20
6.145072974193512
 30
-22.5984251126647
 70
   192
  0
VERTEX
  5
496
330
490
100
AcDbEntity
  8
0
100
AcDbVertex
100
AcDbPolyFaceMeshVertex
 10
-2.936899970219997
 20
6.230009761640076
 30
-22.5984251126647
 70
   192
  0
VERTEX
  5
497
330
490
100
AcDbEntity
  8
0
100
AcDbVertex
100
AcDbPolyFaceMeshVertex
 10
-2.936899970219997
 20
6.230009761640076
 30
-22.55905503407121
 70
   192
  0
VERTEX
  5
498
330
490
100
AcDbEntity
  8
0
100
AcDbVertex
100
AcDbPolyFaceMeshVertex
 10
-2.851962281663844
 20
6.286763445645249
 30
-22.5984251126647
 70
   192
  0
VERTEX
  5
499
330
490
100
AcDbEntity
  8
0
100
AcDbVertex
100
AcDbPolyFaceMeshVertex
 10
-2.851962281663844
 20
6.286763445645249
 30
-22.55905503407121
 70
   192
  0
VERTEX
  5
49A
330
490
100
AcDbEntity
  8
0
100
AcDbVertex
100
AcDbPolyFaceMeshVertex
 10
-2.751771511129419
 20
6.30669298600992
 30
-22.5984251126647
 70
   192
  0
VERTEX
  5
49B
330
490
100
AcDbEntity
  8
0
100
AcDbVertex
100
AcDbPolyFaceMeshVertex
 10
-2.751771511129419
 20
6.30669298600992
 30
-22.55905503407121
 70
   192
  0
VERTEX
  5
49C
330
490
100
AcDbEntity
  8
0
100
AcDbFaceRecord
 10
0.0
 20
0.0
 30
0.0
 70
   128
 71
     9
 72
    10
 73
     7
  0
VERTEX
  5
49D
330
490
100
AcDbEntity
  8
0
100
AcDbFaceRecord
 10
0.0
 20
0.0
 30
0.0
 70
   128
 71
     8
 72
     7
 73
    10
  0
VERTEX
  5
49E
330
490
100
AcDbEntity
  8
0
100
AcDbFaceRecord
 10
0.0
 20
0.0
 30
0.0
 70
   128
 71
     7
 72
     8
 73
     5
  0
VERTEX
  5
49F
330
490
100
AcDbEntity
  8
0
100
AcDbFaceRecord
 10
0.0
 20
0.0
 30
0.0
 70
   128
 71
     6
 72
     5
 73
     8
  0
VERTEX
  5
4A0
330
490
100
AcDbEntity
  8
0
100
AcDbFaceRecord
 10
0.0
 20
0.0
 30
0.0
 70
   128
 71
     5
 72
     6
 73
     4
  0
VERTEX
  5
4A1
330
490
100
AcDbEntity
  8
0
100
AcDbFaceRecord
 10
0.0
 20
0.0
 30
0.0
 70
   128
 71
     1
 72
     4
 73
     6
  0
VERTEX
  5
4A2
330
490
100
AcDbEntity
  8
0
100
AcDbFaceRecord
 10
0.0
 20
0.0
 30
0.0
 70
   128
 71
     4
 72
     1
 73
     3
  0
VERTEX
  5
4A3
330
490
100
AcDbEntity
  8
0
100
AcDbFaceRecord
 10
0.0
 20
0.0
 30
0.0
 70
   128
 71
     2
 72
     3
 73
     1
  0
SEQEND
  5
491
330
490
100
AcDbEntity
  8
0
  0
POLYLINE
  5
4A4
330
1F
100
AcDbEntity
  8
0
 62
     0
100
AcDbPolyFaceMesh
 66
     1
 10
0.0
 20
0.0
 30
0.0
 70
    64
 71
    10
 72
     8
  0
VERTEX
  5
4A6
330
4A4
100
AcDbEntity
  8
0
100
AcDbVertex
100
AcDbPolyFaceMeshVertex
 10
-2.851962281663844
 20
2.327015785499498
 30
-22.55905503407121
 70
   192
  0
VERTEX
  5
4A7
330
4A4
100
AcDbEntity
  8
0
100
AcDbVertex
100
AcDbPolyFaceMeshVertex
 10
-2.751771511129419
 20
2.30708669568962
 30
-22.55905503407121
 70
   192
  0
VERTEX
  5
4A8
330
4A4
100
AcDbEntity
  8
0
100
AcDbVertex
100
AcDbPolyFaceMeshVertex
 10
-2.751771511129419
 20
2.30708669568962
 30
-22.5984251126647
 70
   192
  0
VERTEX
  5
4A9
330
4A4
100
AcDbEntity
  8
0
100
AcDbVertex
100
AcDbPolyFaceMeshVertex
 10
-2.851962281663844
 20
2.327015785499498
 30
-22.5984251126647
 70
   192
  0
VERTEX
  5
4AA
330
4A4
100
AcDbEntity
  8
0
100
AcDbVertex
100
AcDbPolyFaceMeshVertex
 10
-2.936899970219997
 20
2.38376931931974
 30
-22.5984251126647
 70
   192
  0
VERTEX
  5
4AB
330
4A4
100
AcDbEntity
  8
0
100
AcDbVertex
100
AcDbPolyFaceMeshVertex
 10
-2.936899970219997
 20
2.38376931931974
 30
-22.55905503407121
 70
   192
  0
VERTEX
  5
4AC
330
4A4
100
AcDbEntity
  8
0
100
AcDbVertex
100
AcDbPolyFaceMeshVertex
 10
-2.99365365422517
 20
2.468706707506029
 30
-22.5984251126647
 70
   192
  0
VERTEX
  5
4AD
330
4A4
100
AcDbEntity
  8
0
100
AcDbVertex
100
AcDbPolyFaceMeshVertex
 10
-2.99365365422517
 20
2.468706707506029
 30
-22.55905503407121
 70
   192
  0
VERTEX
  5
4AE
330
4A4
100
AcDbEntity
  8
0
100
AcDbVertex
100
AcDbPolyFaceMeshVertex
 10
-3.013582593850116
 20
2.568897628225385
 30
-22.5984251126647
 70
   192
  0
VERTEX
  5
4AF
330
4A4
100
AcDbEntity
  8
0
100
AcDbVertex
100
AcDbPolyFaceMeshVertex
 10
-3.013582593850116
 20
2.568897628225385
 30
-22.55905503407121
 70
   192
  0
VERTEX
  5
4B0
330
4A4
100
AcDbEntity
  8
0
100
AcDbFaceRecord
 10
0.0
 20
0.0
 30
0.0
 70
   128
 71
     9
 72
    10
 73
     7
  0
VERTEX
  5
4B1
330
4A4
100
AcDbEntity
  8
0
100
AcDbFaceRecord
 10
0.0
 20
0.0
 30
0.0
 70
   128
 71
     8
 72
     7
 73
    10
  0
VERTEX
  5
4B2
330
4A4
100
AcDbEntity
  8
0
100
AcDbFaceRecord
 10
0.0
 20
0.0
 30
0.0
 70
   128
 71
     7
 72
     8
 73
     5
  0
VERTEX
  5
4B3
330
4A4
100
AcDbEntity
  8
0
100
AcDbFaceRecord
 10
0.0
 20
0.0
 30
0.0
 70
   128
 71
     6
 72
     5
 73
     8
  0
VERTEX
  5
4B4
330
4A4
100
AcDbEntity
  8
0
100
AcDbFaceRecord
 10
0.0
 20
0.0
 30
0.0
 70
   128
 71
     5
 72
     6
 73
     4
  0
VERTEX
  5
4B5
330
4A4
100
AcDbEntity
  8
0
100
AcDbFaceRecord
 10
0.0
 20
0.0
 30
0.0
 70
   128
 71
     1
 72
     4
 73
     6
  0
VERTEX
  5
4B6
330
4A4
100
AcDbEntity
  8
0
100
AcDbFaceRecord
 10
0.0
 20
0.0
 30
0.0
 70
   128
 71
     4
 72
     1
 73
     3
  0
VERTEX
  5
4B7
330
4A4
100
AcDbEntity
  8
0
100
AcDbFaceRecord
 10
0.0
 20
0.0
 30
0.0
 70
   128
 71
     2
 72
     3
 73
     1
  0
SEQEND
  5
4A5
330
4A4
100
AcDbEntity
  8
0
  0
POLYLINE
  5
4B8
330
1F
100
AcDbEntity
  8
0
 62
     0
100
AcDbPolyFaceMesh
 66
     1
 10
0.0
 20
0.0
 30
0.0
 70
    64
 71
    10
 72
     8
  0
VERTEX
  5
4BA
330
4B8
100
AcDbEntity
  8
0
100
AcDbVertex
100
AcDbPolyFaceMeshVertex
 10
2.99365365422517
 20
2.468706707506029
 30
-22.55905503407121
 70
   192
  0
VERTEX
  5
4BB
330
4B8
100
AcDbEntity
  8
0
100
AcDbVertex
100
AcDbPolyFaceMeshVertex
 10
3.013582593850116
 20
2.568897628225385
 30
-22.55905503407121
 70
   192
  0
VERTEX
  5
4BC
330
4B8
100
AcDbEntity
  8
0
100
AcDbVertex
100
AcDbPolyFaceMeshVertex
 10
3.013582593850116
 20
2.568897628225385
 30
-22.5984251126647
 70
   192
  0
VERTEX
  5
4BD
330
4B8
100
AcDbEntity
  8
0
100
AcDbVertex
100
AcDbPolyFaceMeshVertex
 10
2.99365365422517
 20
2.468706707506029
 30
-22.5984251126647
 70
   192
  0
VERTEX
  5
4BE
330
4B8
100
AcDbEntity
  8
0
100
AcDbVertex
100
AcDbPolyFaceMeshVertex
 10
2.936899970219997
 20
2.38376931931974
 30
-22.5984251126647
 70
   192
  0
VERTEX
  5
4BF
330
4B8
100
AcDbEntity
  8
0
100
AcDbVertex
100
AcDbPolyFaceMeshVertex
 10
2.936899970219997
 20
2.38376931931974
 30
-22.55905503407121
 70
   192
  0
VERTEX
  5
4C0
330
4B8
100
AcDbEntity
  8
0
100
AcDbVertex
100
AcDbPolyFaceMeshVertex
 10
2.851962281663844
 20
2.327015785499498
 30
-22.5984251126647
 70
   192
  0
VERTEX
  5
4C1
330
4B8
100
AcDbEntity
  8
0
100
AcDbVertex
100
AcDbPolyFaceMeshVertex
 10
2.851962281663844
 20
2.327015785499498
 30
-22.55905503407121
 70
   192
  0
VERTEX
  5
4C2
330
4B8
100
AcDbEntity
  8
0
100
AcDbVertex
100
AcDbPolyFaceMeshVertex
 10
2.751771511129419
 20
2.30708669568962
 30
-22.5984251126647
 70
   192
  0
VERTEX
  5
4C3
330
4B8
100
AcDbEntity
  8
0
100
AcDbVertex
100
AcDbPolyFaceMeshVertex
 10
2.751771511129419
 20
2.30708669568962
 30
-22.55905503407121
 70
   192
  0
VERTEX
  5
4C4
330
4B8
100
AcDbEntity
  8
0
100
AcDbFaceRecord
 10
0.0
 20
0.0
 30
0.0
 70
   128
 71
     9
 72
    10
 73
     7
  0
VERTEX
  5
4C5
330
4B8
100
AcDbEntity
  8
0
100
AcDbFaceRecord
 10
0.0
 20
0.0
 30
0.0
 70
   128
 71
     8
 72
     7
 73
    10
  0
VERTEX
  5
4C6
330
4B8
100
AcDbEntity
  8
0
100
AcDbFaceRecord
 10
0.0
 20
0.0
 30
0.0
 70
   128
 71
     7
 72
     8
 73
     5
  0
VERTEX
  5
4C7
330
4B8
100
AcDbEntity
  8
0
100
AcDbFaceRecord
 10
0.0
 20
0.0
 30
0.0
 70
   128
 71
     6
 72
     5
 73
     8
  0
VERTEX
  5
4C8
330
4B8
100
AcDbEntity
  8
0
100
AcDbFaceRecord
 10
0.0
 20
0.0
 30
0.0
 70
   128
 71
     5
 72
     6
 73
     4
  0
VERTEX
  5
4C9
330
4B8
100
AcDbEntity
  8
0
100
AcDbFaceRecord
 10
0.0
 20
0.0
 30
0.0
 70
   128
 71
     1
 72
     4
 73
     6
  0
VERTEX
  5
4CA
330
4B8
100
AcDbEntity
  8
0
100
AcDbFaceRecord
 10
0.0
 20
0.0
 30
0.0
 70
   128
 71
     4
 72
     1
 73
     3
  0
VERTEX
  5
4CB
330
4B8
100
AcDbEntity
  8
0
100
AcDbFaceRecord
 10
0.0
 20
0.0
 30
0.0
 70
   128
 71
     2
 72
     3
 73
     1
  0
SEQEND
  5
4B9
330
4B8
100
AcDbEntity
  8
0
  0
ENDSEC
  0
SECTION
  2
OBJECTS
  0
DICTIONARY
  5
C
330
0
100
AcDbDictionary
281
     1
  3
ACAD_BACKGROUND
350
519
  3
ACAD_CIP_PREVIOUS_PRODUCT_INFO
350
51D
  3
ACAD_COLOR
350
500
  3
ACAD_GROUP
350
D
  3
ACAD_LAYOUT
350
1A
  3
ACAD_MATERIAL
350
4CE
  3
ACAD_MLEADERSTYLE
350
515
  3
ACAD_MLINESTYLE
350
17
  3
ACAD_PLOTSETTINGS
350
19
  3
ACAD_PLOTSTYLENAME
350
E
  3
ACAD_SCALELIST
350
503
  3
ACAD_TABLESTYLE
350
501
  3
ACAD_VISUALSTYLE
350
4E7
  3
ACDB_RECOMPOSE_DATA
350
529
  3
AcDbVariableDictionary
350
51E
  0
DICTIONARY
  5
519
102
{ACAD_REACTORS
330
C
102
}
330
C
100
AcDbDictionary
281
     1
  0
XRECORD
  5
51D
102
{ACAD_REACTORS
330
C
102
}
330
C
100
AcDbXrecord
280
     1
300
ACD
300
2012
300
ACD_F_S
  0
DICTIONARY
  5
500
102
{ACAD_REACTORS
330
C
102
}
330
C
100
AcDbDictionary
281
     1
  0
DICTIONARY
  5
D
102
{ACAD_REACTORS
330
C
102
}
330
C
100
AcDbDictionary
281
     1
  0
DICTIONARY
  5
1A
102
{ACAD_REACTORS
330
C
102
}
330
C
100
AcDbDictionary
281
     1
  3
Layout1
350
1E
  3
Layout2
350
26
  3
Model
350
22
  0
DICTIONARY
  5
4CE
102
{ACAD_REACTORS
330
C
102
}
330
C
100
AcDbDictionary
281
     1
  3
ByBlock
350
4D7
  3
ByLayer
350
4CF
  3
Global
350
4DF
  0
DICTIONARY
  5
515
102
{ACAD_REACTORS
330
C
102
}
330
C
100
AcDbDictionary
281
     1
  3
Standard
350
516
  0
DICTIONARY
  5
17
102
{ACAD_REACTORS
330
C
102
}
330
C
100
AcDbDictionary
281
     1
  3
Standard
350
18
  0
DICTIONARY
  5
19
102
{ACAD_REACTORS
330
C
102
}
330
C
100
AcDbDictionary
281
     1
  0
ACDBDICTIONARYWDFLT
  5
E
102
{ACAD_REACTORS
330
C
102
}
330
C
100
AcDbDictionary
281
     1
  3
Normal
350
F
100
AcDbDictionaryWithDefault
340
F
  0
DICTIONARY
  5
503
102
{ACAD_REACTORS
330
C
102
}
330
C
100
AcDbDictionary
281
     1
  3
A0
350
504
  3
A1
350
505
  3
A2
350
506
  3
A3
350
507
  3
A4
350
508
  3
A5
350
509
  3
A6
350
50A
  3
A7
350
50B
  3
A8
350
50C
  3
A9
350
50D
  3
B0
350
50E
  3
B1
350
50F
  3
B2
350
510
  3
B3
350
511
  3
B4
350
512
  3
B5
350
513
  3
B6
350
514
  0
DICTIONARY
  5
501
102
{ACAD_REACTORS
330
C
102
}
330
C
100
AcDbDictionary
281
     1
  3
Standard
350
502
  0
DICTIONARY
  5
4E7
102
{ACAD_REACTORS
330
C
102
}
330
C
100
AcDbDictionary
281
     1
  3
2dWireframe
350
4ED
  3
Basic
350
4EC
  3
Brighten
350
4F3
  3
ColorChange
350
4F7
  3
Conceptual
350
4F0
  3
Dim
350
4F2
  3
EdgeColorOff
350
4FF
  3
Facepattern
350
4F6
  3
Flat
350
4E8
  3
FlatWithEdges
350
4E9
  3
Gouraud
350
4EA
  3
GouraudWithEdges
350
4EB
  3
Hidden
350
4EF
  3
JitterOff
350
4FD
  3
Linepattern
350
4F5
  3
OverhangOff
350
4FE
  3
Realistic
350
4F1
  3
Shaded
350
4FC
  3
Shaded with edges
350
4FB
  3
Shades of Gray
350
4F8
  3
Sketchy
350
4F9
  3
Thicken
350
4F4
  3
Wireframe
350
4EE
  3
X-Ray
350
4FA
  0
XRECORD
  5
529
102
{ACAD_REACTORS
330
C
102
}
330
C
100
AcDbXrecord
280
     1
 90
        1
330
502
  0
DICTIONARY
  5
51E
102
{ACAD_REACTORS
330
C
102
}
330
C
100
AcDbDictionary
281
     1
  3
CANNOSCALE
350
522
  3
CMLEADERSTYLE
350
520
  3
CTABLESTYLE
350
51F
  3
LAYEREVAL
350
524
  3
LAYERNOTIFY
350
525
  3
LIGHTINGUNITS
350
523
  3
MSLTSCALE
350
521
  0
LAYOUT
  5
1E
102
{ACAD_REACTORS
330
1A
102
}
330
1A
100
AcDbPlotSettings
  1

  2

  4

  6

 40
0.0
 41
0.0
 42
0.0
 43
0.0
 44
0.0
 45
0.0
 46
0.0
 47
0.0
 48
0.0
 49
0.0
140
0.0
141
0.0
142
1.0
143
1.0
 70
   688
 72
     0
 73
     0
 74
     5
  7

 75
    16
147
1.0
 76
     0
 77
     2
 78
   300
148
0.0
149
0.0
100
AcDbLayout
  1
Layout1
 70
     1
 71
     1
 10
0.0
 20
0.0
 11
12.0
 21
9.0
 12
0.0
 22
0.0
 32
0.0
 14
1.000000000000000E+20
 24
1.000000000000000E+20
 34
1.000000000000000E+20
 15
-1.000000000000000E+20
 25
-1.000000000000000E+20
 35
-1.000000000000000E+20
146
0.0
 13
0.0
 23
0.0
 33
0.0
 16
1.0
 26
0.0
 36
0.0
 17
0.0
 27
1.0
 37
0.0
 76
     0
330
1B
  0
LAYOUT
  5
26
102
{ACAD_REACTORS
330
1A
102
}
330
1A
100
AcDbPlotSettings
  1

  2

  4

  6

 40
0.0
 41
0.0
 42
0.0
 43
0.0
 44
0.0
 45
0.0
 46
0.0
 47
0.0
 48
0.0
 49
0.0
140
0.0
141
0.0
142
1.0
143
1.0
 70
   688
 72
     0
 73
     0
 74
     5
  7

 75
    16
147
1.0
 76
     0
 77
     2
 78
   300
148
0.0
149
0.0
100
AcDbLayout
  1
Layout2
 70
     1
 71
     2
 10
0.0
 20
0.0
 11
0.0
 21
0.0
 12
0.0
 22
0.0
 32
0.0
 14
0.0
 24
0.0
 34
0.0
 15
0.0
 25
0.0
 35
0.0
146
0.0
 13
0.0
 23
0.0
 33
0.0
 16
1.0
 26
0.0
 36
0.0
 17
0.0
 27
1.0
 37
0.0
 76
     0
330
23
  0
LAYOUT
  5
22
102
{ACAD_REACTORS
330
1A
102
}
330
1A
100
AcDbPlotSettings
  1

  2

  4

  6

 40
0.0
 41
0.0
 42
0.0
 43
0.0
 44
0.0
 45
0.0
 46
0.0
 47
0.0
 48
0.0
 49
0.0
140
0.0
141
0.0
142
1.0
143
1.0
 70
  1712
 72
     0
 73
     0
 74
     0
  7

 75
     0
147
1.0
 76
     0
 77
     2
 78
   300
148
0.0
149
0.0
100
AcDbLayout
  1
Model
 70
     1
 71
     0
 10
0.0
 20
0.0
 11
0.0
 21
0.0
 12
0.0
 22
0.0
 32
0.0
 14
-4.93897623940569
 24
0.0
 34
-22.5984251126647
 15
4.93897623940569
 25
15.51181096583605
 35
1.141732279211282
146
0.0
 13
0.0
 23
0.0
 33
0.0
 16
1.0
 26
0.0
 36
0.0
 17
0.0
 27
1.0
 37
0.0
 76
     0
330
1F
331
29
  0
MATERIAL
  5
4D7
102
{ACAD_XDICTIONARY
360
4D8
102
}
102
{ACAD_REACTORS
330
4CE
102
}
330
4CE
100
AcDbMaterial
  1
ByBlock
 72
     0
 43
0.0208333333333333
 43
0.0
 43
0.0
 43
0.0
 43
0.0
 43
0.0208333333333333
 43
0.0
 43
0.0
 43
0.0
 43
0.0
 43
1.0
 43
0.0
 43
0.0
 43
0.0
 43
0.0
 43
1.0
 77
     0
 47
0.0208333333333333
 47
0.0
 47
0.0
 47
0.0
 47
0.0
 47
0.0208333333333333
 47
0.0
 47
0.0
 47
0.0
 47
0.0
 47
1.0
 47
0.0
 47
0.0
 47
0.0
 47
0.0
 47
1.0
171
     0
 49
0.0208333333333333
 49
0.0
 49
0.0
 49
0.0
 49
0.0
 49
0.0208333333333333
 49
0.0
 49
0.0
 49
0.0
 49
0.0
 49
1.0
 49
0.0
 49
0.0
 49
0.0
 49
0.0
 49
1.0
175
     0
142
0.0208333333333333
142
0.0
142
0.0
142
0.0
142
0.0
142
0.0208333333333333
142
0.0
142
0.0
142
0.0
142
0.0
142
1.0
142
0.0
142
0.0
142
0.0
142
0.0
142
1.0
179
     0
144
0.0208333333333333
144
0.0
144
0.0
144
0.0
144
0.0
144
0.0208333333333333
144
0.0
144
0.0
144
0.0
144
0.0
144
1.0
144
0.0
144
0.0
144
0.0
144
0.0
144
1.0
147
0.0208333333333333
147
0.0
147
0.0
147
0.0
147
0.0
147
0.0208333333333333
147
0.0
147
0.0
147
0.0
147
0.0
147
1.0
147
0.0
147
0.0
147
0.0
147
0.0
147
1.0
  0
MATERIAL
  5
4CF
102
{ACAD_XDICTIONARY
360
4D0
102
}
102
{ACAD_REACTORS
330
4CE
102
}
330
4CE
100
AcDbMaterial
  1
ByLayer
 72
     0
 43
0.0208333333333333
 43
0.0
 43
0.0
 43
0.0
 43
0.0
 43
0.0208333333333333
 43
0.0
 43
0.0
 43
0.0
 43
0.0
 43
1.0
 43
0.0
 43
0.0
 43
0.0
 43
0.0
 43
1.0
 77
     0
 47
0.0208333333333333
 47
0.0
 47
0.0
 47
0.0
 47
0.0
 47
0.0208333333333333
 47
0.0
 47
0.0
 47
0.0
 47
0.0
 47
1.0
 47
0.0
 47
0.0
 47
0.0
 47
0.0
 47
1.0
171
     0
 49
0.0208333333333333
 49
0.0
 49
0.0
 49
0.0
 49
0.0
 49
0.0208333333333333
 49
0.0
 49
0.0
 49
0.0
 49
0.0
 49
1.0
 49
0.0
 49
0.0
 49
0.0
 49
0.0
 49
1.0
175
     0
142
0.0208333333333333
142
0.0
142
0.0
142
0.0
142
0.0
142
0.0208333333333333
142
0.0
142
0.0
142
0.0
142
0.0
142
1.0
142
0.0
142
0.0
142
0.0
142
0.0
142
1.0
179
     0
144
0.0208333333333333
144
0.0
144
0.0
144
0.0
144
0.0
144
0.0208333333333333
144
0.0
144
0.0
144
0.0
144
0.0
144
1.0
144
0.0
144
0.0
144
0.0
144
0.0
144
1.0
147
0.0208333333333333
147
0.0
147
0.0
147
0.0
147
0.0
147
0.0208333333333333
147
0.0
147
0.0
147
0.0
147
0.0
147
1.0
147
0.0
147
0.0
147
0.0
147
0.0
147
1.0
  0
MATERIAL
  5
4DF
102
{ACAD_XDICTIONARY
360
4E0
102
}
102
{ACAD_REACTORS
330
4CE
102
}
330
4CE
100
AcDbMaterial
  1
Global
 72
     0
 43
0.0208333333333333
 43
0.0
 43
0.0
 43
0.0
 43
0.0
 43
0.0208333333333333
 43
0.0
 43
0.0
 43
0.0
 43
0.0
 43
1.0
 43
0.0
 43
0.0
 43
0.0
 43
0.0
 43
1.0
 77
     0
 47
0.0208333333333333
 47
0.0
 47
0.0
 47
0.0
 47
0.0
 47
0.0208333333333333
 47
0.0
 47
0.0
 47
0.0
 47
0.0
 47
1.0
 47
0.0
 47
0.0
 47
0.0
 47
0.0
 47
1.0
171
     0
 49
0.0208333333333333
 49
0.0
 49
0.0
 49
0.0
 49
0.0
 49
0.0208333333333333
 49
0.0
 49
0.0
 49
0.0
 49
0.0
 49
1.0
 49
0.0
 49
0.0
 49
0.0
 49
0.0
 49
1.0
175
     0
142
0.0208333333333333
142
0.0
142
0.0
142
0.0
142
0.0
142
0.0208333333333333
142
0.0
142
0.0
142
0.0
142
0.0
142
1.0
142
0.0
142
0.0
142
0.0
142
0.0
142
1.0
179
     0
144
0.0208333333333333
144
0.0
144
0.0
144
0.0
144
0.0
144
0.0208333333333333
144
0.0
144
0.0
144
0.0
144
0.0
144
1.0
144
0.0
144
0.0
144
0.0
144
0.0
144
1.0
147
0.0208333333333333
147
0.0
147
0.0
147
0.0
147
0.0
147
0.0208333333333333
147
0.0
147
0.0
147
0.0
147
0.0
147
1.0
147
0.0
147
0.0
147
0.0
147
0.0
147
1.0
  0
MLEADERSTYLE
  5
516
102
{ACAD_REACTORS
330
515
102
}
330
515
100
AcDbMLeaderStyle
179
     2
170
     2
171
     1
172
     0
 90
        2
 40
0.0
 41
0.0
173
     1
 91
-1056964608
340
14
 92
       -2
290
     1
 42
0.09
291
     1
 43
0.36
  3
Standard
 44
0.18
300

342
11
174
     1
178
     6
175
     1
176
     0
 93
-1056964608
 45
0.18
292
     0
297
     0
 46
0.18
 94
-1056964608
 47
1.0
 49
1.0
140
1.0
293
     1
141
0.0
294
     1
177
     0
142
1.0
295
     0
296
     0
143
0.125
271
     0
272
     9
273
     9
  0
MLINESTYLE
  5
18
102
{ACAD_REACTORS
330
17
102
}
330
17
100
AcDbMlineStyle
  2
STANDARD
 70
     0
  3

 62
   256
 51
90.0
 52
90.0
 71
     2
 49
0.5
 62
   256
  6
BYLAYER
 49
-0.5
 62
   256
  6
BYLAYER
  0
ACDBPLACEHOLDER
  5
F
102
{ACAD_REACTORS
330
E
102
}
330
E
  0
SCALE
  5
504
102
{ACAD_REACTORS
330
503
102
}
330
503
100
AcDbScale
 70
     0
300
1:1
140
1.0
141
1.0
290
     1
  0
SCALE
  5
505
102
{ACAD_REACTORS
330
503
102
}
330
503
100
AcDbScale
 70
     0
300
1/128" = 1'-0"
140
0.0078125
141
12.0
290
     0
  0
SCALE
  5
506
102
{ACAD_REACTORS
330
503
102
}
330
503
100
AcDbScale
 70
     0
300
1/64" = 1'-0"
140
0.015625
141
12.0
290
     0
  0
SCALE
  5
507
102
{ACAD_REACTORS
330
503
102
}
330
503
100
AcDbScale
 70
     0
300
1/32" = 1'-0"
140
0.03125
141
12.0
290
     0
  0
SCALE
  5
508
102
{ACAD_REACTORS
330
503
102
}
330
503
100
AcDbScale
 70
     0
300
1/16" = 1'-0"
140
0.0625
141
12.0
290
     0
  0
SCALE
  5
509
102
{ACAD_REACTORS
330
503
102
}
330
503
100
AcDbScale
 70
     0
300
3/32" = 1'-0"
140
0.09375
141
12.0
290
     0
  0
SCALE
  5
50A
102
{ACAD_REACTORS
330
503
102
}
330
503
100
AcDbScale
 70
     0
300
1/8" = 1'-0"
140
0.125
141
12.0
290
     0
  0
SCALE
  5
50B
102
{ACAD_REACTORS
330
503
102
}
330
503
100
AcDbScale
 70
     0
300
3/16" = 1'-0"
140
0.1875
141
12.0
290
     0
  0
SCALE
  5
50C
102
{ACAD_REACTORS
330
503
102
}
330
503
100
AcDbScale
 70
     0
300
1/4" = 1'-0"
140
0.25
141
12.0
290
     0
  0
SCALE
  5
50D
102
{ACAD_REACTORS
330
503
102
}
330
503
100
AcDbScale
 70
     0
300
3/8" = 1'-0"
140
0.375
141
12.0
290
     0
  0
SCALE
  5
50E
102
{ACAD_REACTORS
330
503
102
}
330
503
100
AcDbScale
 70
     0
300
1/2" = 1'-0"
140
0.5
141
12.0
290
     0
  0
SCALE
  5
50F
102
{ACAD_REACTORS
330
503
102
}
330
503
100
AcDbScale
 70
     0
300
3/4" = 1'-0"
140
0.75
141
12.0
290
     0
  0
SCALE
  5
510
102
{ACAD_REACTORS
330
503
102
}
330
503
100
AcDbScale
 70
     0
300
1" = 1'-0"
140
1.0
141
12.0
290
     0
  0
SCALE
  5
511
102
{ACAD_REACTORS
330
503
102
}
330
503
100
AcDbScale
 70
     0
300
1-1/2" = 1'-0"
140
1.5
141
12.0
290
     0
  0
SCALE
  5
512
102
{ACAD_REACTORS
330
503
102
}
330
503
100
AcDbScale
 70
     0
300
3" = 1'-0"
140
3.0
141
12.0
290
     0
  0
SCALE
  5
513
102
{ACAD_REACTORS
330
503
102
}
330
503
100
AcDbScale
 70
     0
300
6" = 1'-0"
140
6.0
141
12.0
290
     0
  0
SCALE
  5
514
102
{ACAD_REACTORS
330
503
102
}
330
503
100
AcDbScale
 70
     0
300
1'-0" = 1'-0"
140
12.0
141
12.0
290
     0
  0
TABLESTYLE
  5
502
102
{ACAD_XDICTIONARY
360
527
102
}
102
{ACAD_REACTORS
330
501
102
}
330
501
100
AcDbTableStyle
280
     0
  3
Standard
 70
     0
 71
     0
 40
0.06
 41
0.06
280
     0
281
     0
  7
Standard
140
0.18
170
     2
 62
     0
 63
     7
283
     0
 90
      512
 91
        0
  1

274
    -2
284
     1
 64
     0
275
    -2
285
     1
 65
     0
276
    -2
286
     1
 66
     0
277
    -2
287
     1
 67
     0
278
    -2
288
     1
 68
     0
279
    -2
289
     1
 69
     0
  7
Standard
140
0.25
170
     5
 62
     0
 63
     7
283
     0
 90
      512
 91
        0
  1

274
    -2
284
     1
 64
     0
275
    -2
285
     1
 65
     0
276
    -2
286
     1
 66
     0
277
    -2
287
     1
 67
     0
278
    -2
288
     1
 68
     0
279
    -2
289
     1
 69
     0
  7
Standard
140
0.18
170
     5
 62
     0
 63
     7
283
     0
 90
      512
 91
        0
  1

274
    -2
284
     1
 64
     0
275
    -2
285
     1
 65
     0
276
    -2
286
     1
 66
     0
277
    -2
287
     1
 67
     0
278
    -2
288
     1
 68
     0
279
    -2
289
     1
 69
     0
  0
VISUALSTYLE
  5
4ED
102
{ACAD_REACTORS
330
4E7
102
}
330
4E7
100
AcDbVisualStyle
  2
2dWireframe
 70
     4
177
     2
291
     0
 71
     0
176
     1
 72
     2
176
     1
 73
     0
176
     1
 90
        0
176
     1
 40
0.6
176
     1
 41
30.0
176
     1
 63
     7
421
 16777215
176
     1
 74
     1
176
     1
 91
        4
176
     1
 64
     7
176
     1
 65
   257
176
     1
 75
     1
176
     1
175
     1
176
     1
 42
1.0
176
     1
 92
        0
176
     1
 66
   257
176
     1
 43
1.0
176
     1
 76
     1
176
     1
 77
     6
176
     1
 78
     2
176
     1
 67
     7
176
     1
 79
     5
176
     1
170
     0
176
     1
171
     0
176
     1
290
     0
176
     1
 93
        1
176
     1
 44
0.0
176
     1
173
     0
176
     1
  0
VISUALSTYLE
  5
4EC
102
{ACAD_REACTORS
330
4E7
102
}
330
4E7
100
AcDbVisualStyle
  2
Basic
 70
     7
177
     2
291
     1
 71
     1
176
     1
 72
     0
176
     1
 73
     1
176
     1
 90
        0
176
     1
 40
0.6
176
     1
 41
30.0
176
     1
 63
     7
421
 16777215
176
     1
 74
     0
176
     1
 91
        4
176
     1
 64
     7
176
     1
 65
   257
176
     1
 75
     1
176
     1
175
     1
176
     1
 42
1.0
176
     1
 92
        8
176
     1
 66
     7
176
     1
 43
1.0
176
     1
 76
     1
176
     1
 77
     6
176
     1
 78
     2
176
     1
 67
     7
176
     1
 79
     5
176
     1
170
     0
176
     1
171
     0
176
     1
290
     0
176
     1
 93
        1
176
     1
 44
0.0
176
     1
173
     0
176
     1
  0
VISUALSTYLE
  5
4F3
102
{ACAD_REACTORS
330
4E7
102
}
330
4E7
100
AcDbVisualStyle
  2
Brighten
 70
    12
177
     2
291
     1
 71
     2
176
     1
 72
     2
176
     1
 73
     0
176
     1
 90
        0
176
     1
 40
0.6
176
     1
 41
30.0
176
     1
 63
     7
421
 16777215
176
     1
 74
     1
176
     1
 91
        4
176
     1
 64
     7
176
     1
 65
   257
176
     1
 75
     1
176
     1
175
     1
176
     1
 42
1.0
176
     1
 92
        8
176
     1
 66
     7
176
     1
 43
1.0
176
     1
 76
     1
176
     1
 77
     6
176
     1
 78
     2
176
     1
 67
     7
176
     1
 79
     5
176
     1
170
     0
176
     1
171
     0
176
     1
290
     0
176
     1
 93
        1
176
     1
 44
50.0
176
     1
173
     0
176
     1
  0
VISUALSTYLE
  5
4F7
102
{ACAD_REACTORS
330
4E7
102
}
330
4E7
100
AcDbVisualStyle
  2
ColorChange
 70
    16
177
     2
291
     1
 71
     2
176
     1
 72
     2
176
     1
 73
     3
176
     1
 90
        0
176
     1
 40
0.6
176
     1
 41
30.0
176
     1
 63
     8
421
  8421504
176
     1
 74
     1
176
     1
 91
        4
176
     1
 64
     7
176
     1
 65
   257
176
     1
 75
     1
176
     1
175
     1
176
     1
 42
1.0
176
     1
 92
        8
176
     1
 66
     8
424
  8421504
176
     1
 43
1.0
176
     1
 76
     1
176
     1
 77
     6
176
     1
 78
     2
176
     1
 67
     7
176
     1
 79
     5
176
     1
170
     0
176
     1
171
     0
176
     1
290
     0
176
     1
 93
        1
176
     1
 44
0.0
176
     1
173
     0
176
     1
  0
VISUALSTYLE
  5
4F0
102
{ACAD_REACTORS
330
4E7
102
}
330
4E7
100
AcDbVisualStyle
  2
Conceptual
 70
     9
177
     2
291
     0
 71
     3
176
     1
 72
     2
176
     1
 73
     0
176
     1
 90
        0
176
     1
 40
0.6
176
     1
 41
30.0
176
     1
 63
     7
421
 16777215
176
     1
 74
     2
176
     1
 91
        2
176
     1
 64
     7
176
     1
 65
   257
176
     1
 75
     1
176
     1
175
     1
176
     1
 42
179.0
176
     1
 92
        8
176
     1
 66
     7
176
     1
 43
1.0
176
     1
 76
     1
176
     1
 77
     6
176
     1
 78
     2
176
     1
 67
     7
176
     1
 79
     3
176
     1
170
     0
176
     1
171
     0
176
     1
290
     0
176
     1
 93
        1
176
     1
 44
0.0
176
     1
173
     0
176
     1
  0
VISUALSTYLE
  5
4F2
102
{ACAD_REACTORS
330
4E7
102
}
330
4E7
100
AcDbVisualStyle
  2
Dim
 70
    11
177
     2
291
     1
 71
     2
176
     1
 72
     2
176
     1
 73
     0
176
     1
 90
        0
176
     1
 40
0.6
176
     1
 41
30.0
176
     1
 63
     7
421
 16777215
176
     1
 74
     1
176
     1
 91
        4
176
     1
 64
     7
176
     1
 65
   257
176
     1
 75
     1
176
     1
175
     1
176
     1
 42
1.0
176
     1
 92
        8
176
     1
 66
     7
176
     1
 43
1.0
176
     1
 76
     1
176
     1
 77
     6
176
     1
 78
     2
176
     1
 67
     7
176
     1
 79
     5
176
     1
170
     0
176
     1
171
     0
176
     1
290
     0
176
     1
 93
        1
176
     1
 44
-50.0
176
     1
173
     0
176
     1
  0
VISUALSTYLE
  5
4FF
102
{ACAD_REACTORS
330
4E7
102
}
330
4E7
100
AcDbVisualStyle
  2
EdgeColorOff
 70
    22
177
     2
291
     1
 71
     2
176
     0
 72
     2
176
     0
 73
     0
176
     0
 90
        0
176
     0
 40
0.6
176
     0
 41
30.0
176
     0
 63
     7
421
 16777215
176
     0
 74
     1
176
     0
 91
        4
176
     0
 64
     7
176
     0
 65
   257
176
     0
 75
     1
176
     0
175
     1
176
     0
 42
1.0
176
     0
 92
        8
176
     2
 66
     7
176
     0
 43
1.0
176
     0
 76
     1
176
     0
 77
     6
176
     0
 78
     2
176
     0
 67
     7
176
     0
 79
     5
176
     0
170
     0
176
     0
171
     0
176
     0
290
     0
176
     0
 93
        1
176
     0
 44
0.0
176
     0
173
     0
176
     0
  0
VISUALSTYLE
  5
4F6
102
{ACAD_REACTORS
330
4E7
102
}
330
4E7
100
AcDbVisualStyle
  2
Facepattern
 70
    15
177
     2
291
     1
 71
     2
176
     1
 72
     2
176
     1
 73
     0
176
     1
 90
        0
176
     1
 40
0.6
176
     1
 41
30.0
176
     1
 63
     7
421
 16777215
176
     1
 74
     1
176
     1
 91
        4
176
     1
 64
     7
176
     1
 65
   257
176
     1
 75
     1
176
     1
175
     1
176
     1
 42
1.0
176
     1
 92
        8
176
     1
 66
     7
176
     1
 43
1.0
176
     1
 76
     1
176
     1
 77
     6
176
     1
 78
     2
176
     1
 67
     7
176
     1
 79
     5
176
     1
170
     0
176
     1
171
     0
176
     1
290
     0
176
     1
 93
        1
176
     1
 44
0.0
176
     1
173
     0
176
     1
  0
VISUALSTYLE
  5
4E8
102
{ACAD_REACTORS
330
4E7
102
}
330
4E7
100
AcDbVisualStyle
  2
Flat
 70
     0
177
     2
291
     1
 71
     2
176
     1
 72
     1
176
     1
 73
     1
176
     1
 90
        2
176
     1
 40
0.6
176
     1
 41
30.0
176
     1
 63
     7
421
 16777215
176
     1
 74
     0
176
     1
 91
        0
176
     1
 64
     7
176
     1
 65
   257
176
     1
 75
     1
176
     1
175
     1
176
     1
 42
1.0
176
     1
 92
        8
176
     1
 66
     7
176
     1
 43
1.0
176
     1
 76
     1
176
     1
 77
     6
176
     1
 78
     2
176
     1
 67
     7
176
     1
 79
     5
176
     1
170
     0
176
     1
171
     0
176
     1
290
     0
176
     1
 93
       13
176
     1
 44
0.0
176
     1
173
     0
176
     1
  0
VISUALSTYLE
  5
4E9
102
{ACAD_REACTORS
330
4E7
102
}
330
4E7
100
AcDbVisualStyle
  2
FlatWithEdges
 70
     1
177
     2
291
     1
 71
     2
176
     1
 72
     1
176
     1
 73
     1
176
     1
 90
        2
176
     1
 40
0.6
176
     1
 41
30.0
176
     1
 63
     7
421
 16777215
176
     1
 74
     1
176
     1
 91
        0
176
     1
 64
     7
176
     1
 65
   257
176
     1
 75
     1
176
     1
175
     1
176
     1
 42
1.0
176
     1
 92
        0
176
     1
 66
   257
176
     1
 43
1.0
176
     1
 76
     1
176
     1
 77
     6
176
     1
 78
     2
176
     1
 67
     7
176
     1
 79
     5
176
     1
170
     0
176
     1
171
     0
176
     1
290
     0
176
     1
 93
       13
176
     1
 44
0.0
176
     1
173
     0
176
     1
  0
VISUALSTYLE
  5
4EA
102
{ACAD_REACTORS
330
4E7
102
}
330
4E7
100
AcDbVisualStyle
  2
Gouraud
 70
     2
177
     2
291
     1
 71
     2
176
     1
 72
     2
176
     1
 73
     1
176
     1
 90
        2
176
     1
 40
0.6
176
     1
 41
30.0
176
     1
 63
     7
421
 16777215
176
     1
 74
     0
176
     1
 91
        0
176
     1
 64
     7
176
     1
 65
   257
176
     1
 75
     1
176
     1
175
     1
176
     1
 42
1.0
176
     1
 92
        0
176
     1
 66
     7
176
     1
 43
1.0
176
     1
 76
     1
176
     1
 77
     6
176
     1
 78
     2
176
     1
 67
     7
176
     1
 79
     5
176
     1
170
     0
176
     1
171
     0
176
     1
290
     0
176
     1
 93
       13
176
     1
 44
0.0
176
     1
173
     0
176
     1
  0
VISUALSTYLE
  5
4EB
102
{ACAD_REACTORS
330
4E7
102
}
330
4E7
100
AcDbVisualStyle
  2
GouraudWithEdges
 70
     3
177
     2
291
     1
 71
     2
176
     1
 72
     2
176
     1
 73
     1
176
     1
 90
        2
176
     1
 40
0.6
176
     1
 41
30.0
176
     1
 63
     7
421
 16777215
176
     1
 74
     1
176
     1
 91
        0
176
     1
 64
     7
176
     1
 65
   257
176
     1
 75
     1
176
     1
175
     1
176
     1
 42
1.0
176
     1
 92
        0
176
     1
 66
   257
176
     1
 43
1.0
176
     1
 76
     1
176
     1
 77
     6
176
     1
 78
     2
176
     1
 67
     7
176
     1
 79
     5
176
     1
170
     0
176
     1
171
     0
176
     1
290
     0
176
     1
 93
       13
176
     1
 44
0.0
176
     1
173
     0
176
     1
  0
VISUALSTYLE
  5
4EF
102
{ACAD_REACTORS
330
4E7
102
}
330
4E7
100
AcDbVisualStyle
  2
Hidden
 70
     6
177
     2
291
     0
 71
     1
176
     1
 72
     2
176
     1
 73
     2
176
     1
 90
        0
176
     1
 40
0.6
176
     1
 41
30.0
176
     1
 63
     7
421
 16777215
176
     1
 74
     2
176
     1
 91
        2
176
     1
 64
     7
176
     1
 65
   257
176
     1
 75
     2
176
     1
175
     1
176
     1
 42
40.0
176
     1
 92
        0
176
     1
 66
   257
176
     1
 43
1.0
176
     1
 76
     1
176
     1
 77
     6
176
     1
 78
     2
176
     1
 67
     7
176
     1
 79
     3
176
     1
170
     0
176
     1
171
     0
176
     1
290
     0
176
     1
 93
        1
176
     1
 44
0.0
176
     1
173
     0
176
     1
  0
VISUALSTYLE
  5
4FD
102
{ACAD_REACTORS
330
4E7
102
}
330
4E7
100
AcDbVisualStyle
  2
JitterOff
 70
    20
177
     2
291
     1
 71
     2
176
     0
 72
     2
176
     0
 73
     0
176
     0
 90
        0
176
     0
 40
0.6
176
     0
 41
30.0
176
     0
 63
     7
421
 16777215
176
     0
 74
     1
176
     0
 91
        4
176
     0
 64
     7
176
     0
 65
   257
176
     0
 75
     1
176
     0
175
     1
176
     0
 42
1.0
176
     0
 92
       10
176
     2
 66
     7
176
     0
 43
1.0
176
     0
 76
     1
176
     0
 77
     6
176
     0
 78
     2
176
     0
 67
     7
176
     0
 79
     5
176
     0
170
     0
176
     0
171
     0
176
     0
290
     0
176
     0
 93
        1
176
     0
 44
0.0
176
     0
173
     0
176
     0
  0
VISUALSTYLE
  5
4F5
102
{ACAD_REACTORS
330
4E7
102
}
330
4E7
100
AcDbVisualStyle
  2
Linepattern
 70
    14
177
     2
291
     1
 71
     2
176
     1
 72
     2
176
     1
 73
     0
176
     1
 90
        0
176
     1
 40
0.6
176
     1
 41
30.0
176
     1
 63
     7
421
 16777215
176
     1
 74
     1
176
     1
 91
        4
176
     1
 64
     7
176
     1
 65
   257
176
     1
 75
     7
176
     1
175
     7
176
     1
 42
1.0
176
     1
 92
        8
176
     1
 66
     7
176
     1
 43
1.0
176
     1
 76
     1
176
     1
 77
     6
176
     1
 78
     2
176
     1
 67
     7
176
     1
 79
     5
176
     1
170
     0
176
     1
171
     0
176
     1
290
     0
176
     1
 93
        1
176
     1
 44
0.0
176
     1
173
     0
176
     1
  0
VISUALSTYLE
  5
4FE
102
{ACAD_REACTORS
330
4E7
102
}
330
4E7
100
AcDbVisualStyle
  2
OverhangOff
 70
    21
177
     2
291
     1
 71
     2
176
     0
 72
     2
176
     0
 73
     0
176
     0
 90
        0
176
     0
 40
0.6
176
     0
 41
30.0
176
     0
 63
     7
421
 16777215
176
     0
 74
     1
176
     0
 91
        4
176
     0
 64
     7
176
     0
 65
   257
176
     0
 75
     1
176
     0
175
     1
176
     0
 42
1.0
176
     0
 92
        9
176
     2
 66
     7
176
     0
 43
1.0
176
     0
 76
     1
176
     0
 77
     6
176
     0
 78
     2
176
     0
 67
     7
176
     0
 79
     5
176
     0
170
     0
176
     0
171
     0
176
     0
290
     0
176
     0
 93
        1
176
     0
 44
0.0
176
     0
173
     0
176
     0
  0
VISUALSTYLE
  5
4F1
102
{ACAD_REACTORS
330
4E7
102
}
330
4E7
100
AcDbVisualStyle
  2
Realistic
 70
     8
177
     2
291
     0
 71
     2
176
     1
 72
     3
176
     1
 73
     0
176
     1
 90
        2
176
     1
 40
0.6
176
     1
 41
30.0
176
     1
 63
     7
421
 16777215
176
     1
 74
     0
176
     1
 91
        0
176
     1
 64
     7
176
     1
 65
   257
176
     1
 75
     1
176
     1
175
     1
176
     1
 42
1.0
176
     1
 92
        8
176
     1
 66
   257
176
     1
 43
1.0
176
     1
 76
     1
176
     1
 77
     6
176
     1
 78
     2
176
     1
 67
     7
176
     1
 79
     3
176
     1
170
     0
176
     1
171
     0
176
     1
290
     0
176
     1
 93
       13
176
     1
 44
0.0
176
     1
173
     0
176
     1
  0
VISUALSTYLE
  5
4FC
102
{ACAD_REACTORS
330
4E7
102
}
330
4E7
100
AcDbVisualStyle
  2
Shaded
 70
    27
177
     2
291
     0
 71
     2
176
     1
 72
     2
176
     1
 73
     1
176
     1
 90
        2
176
     1
 40
0.6
176
     1
 41
30.0
176
     1
 63
     7
421
 16777215
176
     1
 74
     0
176
     1
 91
        4
176
     1
 64
     7
176
     1
 65
   257
176
     1
 75
     1
176
     1
175
     1
176
     1
 42
1.0
176
     1
 92
        8
176
     1
 66
   257
176
     1
 43
1.0
176
     1
 76
     1
176
     1
 77
     6
176
     1
 78
     2
176
     1
 67
     8
425
  7895160
176
     1
 79
     3
176
     1
170
     0
176
     1
171
     0
176
     1
290
     0
176
     1
 93
        5
176
     1
 44
0.0
176
     1
173
     0
176
     1
  0
VISUALSTYLE
  5
4FB
102
{ACAD_REACTORS
330
4E7
102
}
330
4E7
100
AcDbVisualStyle
  2
Shaded with edges
 70
    26
177
     2
291
     0
 71
     2
176
     1
 72
     2
176
     1
 73
     1
176
     1
 90
        2
176
     1
 40
0.6
176
     1
 41
30.0
176
     1
 63
     7
421
 16777215
176
     1
 74
     1
176
     1
 91
       10
176
     1
 64
     7
176
     1
 65
   257
176
     1
 75
     2
176
     1
175
     1
176
     1
 42
1.0
176
     1
 92
        8
176
     1
 66
   257
176
     1
 43
1.0
176
     1
 76
     1
176
     1
 77
     6
176
     1
 78
     2
176
     1
 67
     7
176
     1
 79
     3
176
     1
170
     0
176
     1
171
     0
176
     1
290
     0
176
     1
 93
        5
176
     1
 44
0.0
176
     1
173
     0
176
     1
  0
VISUALSTYLE
  5
4F8
102
{ACAD_REACTORS
330
4E7
102
}
330
4E7
100
AcDbVisualStyle
  2
Shades of Gray
 70
    23
177
     2
291
     0
 71
     2
176
     1
 72
     2
176
     1
 73
     3
176
     1
 90
        0
176
     1
 40
0.6
176
     1
 41
30.0
176
     1
 63
     7
421
 16777215
176
     1
 74
     2
176
     1
 91
        2
176
     1
 64
     7
176
     1
 65
     7
176
     1
 75
     1
176
     1
175
     1
176
     1
 42
40.0
176
     1
 92
        8
176
     1
 66
     7
176
     1
 43
1.0
176
     1
 76
     1
176
     1
 77
     6
176
     1
 78
     2
176
     1
 67
     7
176
     1
 79
     3
176
     1
170
     0
176
     1
171
     0
176
     1
290
     0
176
     1
 93
        1
176
     1
 44
0.0
176
     1
173
     0
176
     1
  0
VISUALSTYLE
  5
4F9
102
{ACAD_REACTORS
330
4E7
102
}
330
4E7
100
AcDbVisualStyle
  2
Sketchy
 70
    24
177
     2
291
     0
 71
     1
176
     1
 72
     2
176
     1
 73
     2
176
     1
 90
        0
176
     1
 40
0.6
176
     1
 41
30.0
176
     1
 63
     7
421
 16777215
176
     1
 74
     2
176
     1
 91
        2
176
     1
 64
     7
176
     1
 65
     7
176
     1
 75
     1
176
     1
175
     1
176
     1
 42
40.0
176
     1
 92
       11
176
     1
 66
     7
176
     1
 43
1.0
176
     1
 76
     1
176
     1
 77
     6
176
     1
 78
     2
176
     1
 67
     7
176
     1
 79
     6
176
     1
170
     0
176
     1
171
     0
176
     1
290
     0
176
     1
 93
        1
176
     1
 44
0.0
176
     1
173
     0
176
     1
  0
VISUALSTYLE
  5
4F4
102
{ACAD_REACTORS
330
4E7
102
}
330
4E7
100
AcDbVisualStyle
  2
Thicken
 70
    13
177
     2
291
     1
 71
     2
176
     1
 72
     2
176
     1
 73
     0
176
     1
 90
        0
176
     1
 40
0.6
176
     1
 41
30.0
176
     1
 63
     7
421
 16777215
176
     1
 74
     1
176
     1
 91
        4
176
     1
 64
     7
176
     1
 65
   257
176
     1
 75
     1
176
     1
175
     1
176
     1
 42
1.0
176
     1
 92
       12
176
     1
 66
     7
176
     1
 43
1.0
176
     1
 76
     1
176
     1
 77
     6
176
     1
 78
     2
176
     1
 67
     7
176
     1
 79
     5
176
     1
170
     0
176
     1
171
     0
176
     1
290
     0
176
     1
 93
        1
176
     1
 44
0.0
176
     1
173
     0
176
     1
  0
VISUALSTYLE
  5
4EE
102
{ACAD_REACTORS
330
4E7
102
}
330
4E7
100
AcDbVisualStyle
  2
Wireframe
 70
     5
177
     2
291
     0
 71
     0
176
     1
 72
     2
176
     1
 73
     0
176
     1
 90
        0
176
     1
 40
0.6
176
     1
 41
30.0
176
     1
 63
     7
421
 16777215
176
     1
 74
     1
176
     1
 91
        4
176
     1
 64
     7
176
     1
 65
   257
176
     1
 75
     1
176
     1
175
     1
176
     1
 42
1.0
176
     1
 92
        0
176
     1
 66
   257
176
     1
 43
1.0
176
     1
 76
     1
176
     1
 77
     6
176
     1
 78
     2
176
     1
 67
     7
176
     1
 79
     3
176
     1
170
     0
176
     1
171
     0
176
     1
290
     0
176
     1
 93
        1
176
     1
 44
0.0
176
     1
173
     0
176
     1
  0
VISUALSTYLE
  5
4FA
102
{ACAD_REACTORS
330
4E7
102
}
330
4E7
100
AcDbVisualStyle
  2
X-Ray
 70
    25
177
     2
291
     0
 71
     2
176
     1
 72
     2
176
     1
 73
     1
176
     1
 90
        1
176
     1
 40
0.5
176
     1
 41
30.0
176
     1
 63
     7
421
 16777215
176
     1
 74
     1
176
     1
 91
        0
176
     1
 64
     7
176
     1
 65
   257
176
     1
 75
     1
176
     1
175
     1
176
     1
 42
1.0
176
     1
 92
        8
176
     1
 66
     7
176
     1
 43
1.0
176
     1
 76
     1
176
     1
 77
     6
176
     1
 78
     2
176
     1
 67
     7
176
     1
 79
     3
176
     1
170
     0
176
     1
171
     0
176
     1
290
     0
176
     1
 93
       13
176
     1
 44
0.0
176
     1
173
     0
176
     1
  0
DICTIONARYVAR
  5
522
102
{ACAD_REACTORS
330
51E
102
}
330
51E
100
DictionaryVariables
280
     0
  1
1:1
  0
DICTIONARYVAR
  5
520
102
{ACAD_REACTORS
330
51E
102
}
330
51E
100
DictionaryVariables
280
     0
  1
STANDARD
  0
DICTIONARYVAR
  5
51F
102
{ACAD_REACTORS
330
51E
102
}
330
51E
100
DictionaryVariables
280
     0
  1
STANDARD
  0
DICTIONARYVAR
  5
524
102
{ACAD_REACTORS
330
51E
102
}
330
51E
100
DictionaryVariables
280
     0
  1
1
  0
DICTIONARYVAR
  5
525
102
{ACAD_REACTORS
330
51E
102
}
330
51E
100
DictionaryVariables
280
     0
  1
15
  0
DICTIONARYVAR
  5
523
102
{ACAD_REACTORS
330
51E
102
}
330
51E
100
DictionaryVariables
280
     0
  1
0
  0
DICTIONARYVAR
  5
521
102
{ACAD_REACTORS
330
51E
102
}
330
51E
100
DictionaryVariables
280
     0
  1
0
  0
DICTIONARY
  5
4D8
330
4D7
100
AcDbDictionary
280
     1
281
     1
  3
BUMPTILE
360
4DA
  3
DIFFUSETILE
360
4D9
  3
OPACITYTILE
360
4DD
  3
REFLECTIONTILE
360
4DC
  3
REFRACTIONTILE
360
4DE
  3
SPECULARTILE
360
4DB
  0
DICTIONARY
  5
4D0
330
4CF
100
AcDbDictionary
280
     1
281
     1
  3
BUMPTILE
360
4D2
  3
DIFFUSETILE
360
4D1
  3
OPACITYTILE
360
4D5
  3
REFLECTIONTILE
360
4D4
  3
REFRACTIONTILE
360
4D6
  3
SPECULARTILE
360
4D3
  0
DICTIONARY
  5
4E0
330
4DF
100
AcDbDictionary
280
     1
281
     1
  3
BUMPTILE
360
4E2
  3
DIFFUSETILE
360
4E1
  3
FBXASSET
360
51C
  3
OPACITYTILE
360
4E5
  3
REFLECTIONTILE
360
4E4
  3
REFRACTIONTILE
360
4E6
  3
SPECULARTILE
360
4E3
  0
DICTIONARY
  5
527
330
502
100
AcDbDictionary
280
     1
281
     1
  3
ACAD_ROUNDTRIP_2008_TABLESTYLE_CELLSTYLEMAP
360
528
  0
XRECORD
  5
4DA
102
{ACAD_REACTORS
330
4D8
102
}
330
4D8
100
AcDbXrecord
280
     1
270
     1
271
     1
  0
XRECORD
  5
4D9
102
{ACAD_REACTORS
330
4D8
102
}
330
4D8
100
AcDbXrecord
280
     1
270
     1
271
     1
  0
XRECORD
  5
4DD
102
{ACAD_REACTORS
330
4D8
102
}
330
4D8
100
AcDbXrecord
280
     1
270
     1
271
     1
  0
XRECORD
  5
4DC
102
{ACAD_REACTORS
330
4D8
102
}
330
4D8
100
AcDbXrecord
280
     1
270
     1
271
     1
  0
XRECORD
  5
4DE
102
{ACAD_REACTORS
330
4D8
102
}
330
4D8
100
AcDbXrecord
280
     1
270
     1
271
     1
  0
XRECORD
  5
4DB
102
{ACAD_REACTORS
330
4D8
102
}
330
4D8
100
AcDbXrecord
280
     1
270
     1
271
     1
  0
XRECORD
  5
4D2
102
{ACAD_REACTORS
330
4D0
102
}
330
4D0
100
AcDbXrecord
280
     1
270
     1
271
     1
  0
XRECORD
  5
4D1
102
{ACAD_REACTORS
330
4D0
102
}
330
4D0
100
AcDbXrecord
280
     1
270
     1
271
     1
  0
XRECORD
  5
4D5
102
{ACAD_REACTORS
330
4D0
102
}
330
4D0
100
AcDbXrecord
280
     1
270
     1
271
     1
  0
XRECORD
  5
4D4
102
{ACAD_REACTORS
330
4D0
102
}
330
4D0
100
AcDbXrecord
280
     1
270
     1
271
     1
  0
XRECORD
  5
4D6
102
{ACAD_REACTORS
330
4D0
102
}
330
4D0
100
AcDbXrecord
280
     1
270
     1
271
     1
  0
XRECORD
  5
4D3
102
{ACAD_REACTORS
330
4D0
102
}
330
4D0
100
AcDbXrecord
280
     1
270
     1
271
     1
  0
XRECORD
  5
4E2
102
{ACAD_REACTORS
330
4E0
102
}
330
4E0
100
AcDbXrecord
280
     1
270
     1
271
     1
  0
XRECORD
  5
4E1
102
{ACAD_REACTORS
330
4E0
102
}
330
4E0
100
AcDbXrecord
280
     1
270
     1
271
     1
  0
XRECORD
  5
51C
102
{ACAD_REACTORS
330
4E0
102
}
330
4E0
100
AcDbXrecord
280
     1
 70
     1
 90
1959938040
 71
     1
  1
30CEFDA9-FDC7-49BD-88AD-1BE42D3055CE
311
504B03040A00000800004D4BA9403DEE336E79000000790000001B0000006175746F6465736B2D64657369676E2D7061636B6167652E786D6C3C3F786D6C2076657273696F6E3D22312E302220656E636F64696E673D227574662D3822203F3E3C666F726D6174733E3C666F726D61743E687474703A2F2F736368656D612E
311
6175746F6465736B2E636F6D2F64657369676E2D7061636B6167652F323030393C2F666F726D61743E3C2F666F726D6174733E504B03041400060808004D4BA940D486FD9CA0000000F4000000130000005B436F6E74656E745F54797065735D2E786D6C7D8EC10E82300C865F65E91D8A1E8C310C0EEA1BF002731658846E
311
D98AC1B77784ABF1D8FE5FBFBF75BBCE937A534CCEB38643598122B6FEE978D0B0485F9C41B54DDD7D022595594E1A469170414C76A4D9A4D207E29CF43ECE46F218070CC6BECC4078ACAA135ACF422C856C0E68EA1BF5669944DDD7BCDE7B1F8E415D77AECB980613C2E4AC91FC167A2B244592486606FC29C8FD7F045B9A
311
EF7053A7E60B504B03041400060808004D4BA940EB3D77DAEA0000007C01000008000000636F72652E786D6C8D905D6EC3201084AF82F61D1BECBAB6234CE49FDEA01740401C94182C03558F5F9C3852FB56096957C37CBBAB61E7EFE58EBEF4E68DB31DD08C00D2563A65ECDC410C17DC003A73B639177ED90059B1E80E76
311
19389B3717D74392CE066D4352AD53FA1085F73A0092F7D474E0E5552F2213312487BF65AB903731EB8CBEBA04C768147A2E312ACD3317A337E0FD34D28F722AF1540E2D7EAB871A0F634BF1348E55DF5765419A9AE53BCC5930CB6BBFDCB4085A012F082D30A930693F497B2ADED3C3A43911C2F2DDFE078AABFA27148D0D
311
65719CFBC43C709A0E797C7096EF59A4F2082AD53D37FE03504B03041400060808004D4BA94055019EA25F0000007C00000007000000636E782E786D6C4DCB3B0E80201045D1AD90E915ED2CF8AC45050C11660C8261F98AB1B07AC9C97D42D718D865D3E909258CFD00CCE24AC6E326A164D74DC0B4128928FF326038472B
311
A13128B1252AC747C6BAB984FC68F0B87FE8960A5C09FE86CFB69FBA01504B03041400060808004D4BA940D02BD3D065010000020300000C0000006662782F636F72652E786D6C8D52ED8E8230107C95A6FF4B0BE829A6D428DC1BDC0B54A81C115A525AE2E3DFF261382FC65C20D0CCECECCE0EF0E3BD6DD0A06C5F1B9DE2
311
306018295D98B2D6558ABDBB923D4647C1AD31EE5719465AB62AC5238C05AFACF1DD0215463BA51DA0DA946A0165DF2B8751D1C021C57DF1AD5A1948EFA0A2BF059D2C6EB2524118000D7582F7CE8201340F199F585C2F774E675C70EFEB7261EB12A6D5D75A592C4E79167EC6794CF2F89C90CDEEBC23E72C09499E65DBD3
311
691B476CBFE374140BEEEAF6E1AEB04A3A556211B130226C4B58F2C59243F4013761FB03639C8EE54F22DF95FF14F95ABB385AECCEB21E8B108C4CC49F6D2122877A39801F2A381D4384D794F073D0100884ECE4A579EC71036850853376034C69FC4A0DB2F10AA632345D9CCE2C749E1AC0662FFB446FFABCEF011F50EA0A
311
AC4907C78B77E3743E4F5DA2E8942583BB236D6C2B9BD5DC6C717DAE835ECA0BD318FB1F355D56A54B9874FC7BC50F504B03041400060808004D4BA9402D8876707D0000009D0000000B0000006662782F636E782E786D6C4DCCD10A83201886E15B91FFDC65A023418DB2BC8F581632D3703A76F9ABD1C18E3E78F87845FB
311
D93C7ADBF4723148A86F04900D8F38BBB04A2879C10DA056891463FEBB010AD366259C0C4AAC2996FDA2D92E53F1F950EFC2F342D269A2594F715FF33BA68C0C989B466343473612D331CE07A894A87EA563CFB0FA02504B03041400060808004D4BA940E9FCEA732C01000015020000310000006662782F30414330433542
311
342D423139362D343530442D394638432D4634453545304641353939442F636F72652E786D6C8D515B6E833010BC8AE5AFF4C3B01040101947799EA01720C649AD041BF951E5F85D0A91DABF4896D7DA9D991DEFF2ED7378906FE5BCB6A6A559029428236DAFCDADA5315C594DC95670676DF803A3C474836AE994A682DF9C
311
8DE39292D6046502668DEDD592ECBC578112F9C0474BBDFC524397743120C2DF93B193F7EEA6922CC132E204F7C1A1013237996E2A60778043B92FD83E6B2A56947064CDB93EB073712A4F70DE954D73E4E94C143C46DD2F74DDA31D7DD5CABD2B3291050F7A78D9974E7541F554E490E50C4A06CD27349BBCC2C3A0DE00F0
311
7482FF23C5B17F9314B509EB7CB13BD33C15194FE782E0BD8D97C7CB8C7A8ED60532F55B79253FF057094051AF2B68D63C9DB1380114AD8A45D407EB70C2ABFB05E159392B5785E0E9B4240CBF1BC4382D54FC00504B03041400060808004D4BA9407531065F4D01000033030000300000006662782F30414330433542342D
311
423139362D343530442D394638432D4634453545304641353939442F636E782E786D6CD593CD6EC32010845F0571B78DD3344A2A4CA41EFA043DF48A6193D060B0F8A99AB7EF929034971C7AAC64216B7698597DB2F9F67BB2E40B4234DE0DB46F1925E094D7C6ED079AD3AE5953B2153C789FEE6C943839C1408B4C05DF07
311
9FE72A69D8C96C13AAD6B8631503449F83828872B949AC57D26200B826A308D3085A83263723BEED20E02A288E27920E40DE5E3F881F3F41A5C8BB922278573A042F676DBA3351A2AC8C71A0511D6092ADCCC96B88C756CB24DBBEBD763DD8E93789940BD7CA1C0C29E5032D271575A31639F20E8782C714905E35A5D30C54
311
C879B646C98490BBB3F1E2113C1B9756CBEA35083EA0BB5F3D2D9718769E099ECC04D5A102C8049A8A05EB170D7B6ED8E69D6D5E162B7C1AB67E618C77C52EF8E8BDAD973006829F89F22E814B54F4BC2BE347F8AA8F681390B50FA73F804400B5F542E796F19FF974E7EF1B7105FC0BC40F504B03041400060808004D4BA9
311
40E875164CA205000080100000340000006662782F30414330433542342D423139362D343530442D394638432D4634453545304641353939442F6F626A656374732E786D6CAD57DB6EDB3810FD1541FBB2FBE0BBD3260B454562278551A42D6AB4D807030625510A3794289054EAECD7EFA148C9926BA7DE455F2C8B1A0E67
311
CE9CB93078B7CBB9F74CA562A2B8F627C3B1EFD12216092BB26BBFD2E9E0D2F7DE8581144277C47CAF2039BDF6CDB21F06991455E996129A928AEB83D5FBDBBF3C15D382FA5ECC8952D7BE8A1F694E86A4D222A1EA6998104D8659BA1B4E8656B0AF3693A47C3C505A12490B0D4BB15E408B678D9AF45FC7FE280C46E67B18
311
985F27353B2D35AAFDE99FCF0AA54911FF70D8819AD964BEBC9B5E5C0D2EE6F3D960FE663A19DCDEDF2E0793B7B3F1E2CD627175737785839596D0E42C9134F5C3F7C046B23818D94F6150B142CFA64EC4056824E9333391F2C3A937094656A6F5CE3979CCFC5814058D6BAC8046ED9F539DD092160962CEA882651D84C6FD
311
D789C1B1F37966DEDD91DDE5F310E8EEE8286A6C6F9E5D4B45F4375C50E730482A6A1868B1748E5AAE8EF708474270F78D292F279A4A46B8C75924897CF143881A9130E8A9314C96261B8C077E8828D8CF7DBA208D7ECEF36356A615E786C67E5867C116B942B5AA2D63FF50B9B7BE8B0C6C42AC0C1B2E9D43FAA5A47E7865
311
297279C0260BA497729221E470D3EC9C4D0F1C5D983C5D2DFDF0C37DB45B9BDC3D7E78294549A536F401B59AC0354F8392B3697256E4CC06FFC0943D285F80FC47A4FADE14C44DB2DD7C3777A768490A950A992336DED81B8CF133F626F5AFF9DFF9178CDACDFDE89DC213C13650FD023CFB3E7463D981330C9E41782167CE
311
B5754C38CAC6032B00902189C705965087D368E7872B54395465EC223C9CC06598FB8CBFC1C8A941A1A84FEA3C0B60795016CF28D080AD6624CCB0E47706EEE3F44339AB0F7662A7E0BDF82574BD59AE3FAC2B9992983EB89C5ED294154CA3C5ED79D335A88779CFA327FAF25DC8048EFE88F7BA8B77EE8E5240DB606E80CF
311
9A9A6E5EF627F70E88B12F13A6DC043F39014E98C6DAD1FFC0544C392705155573EEABFD036DC3426C92DD30B96D30FBC602D2D82F073988261D4B561A10DB6ED516CDE109EFBEAE3E829190E722227C2F14ED4B6F2CB890DBE8656BABD251A4BFF5A9ED2018192D607B9D234DFA3BCCB7094BD34AA1061E81F5DB6AD10D9D
311
A90AA8108D569B2C73B88FDC22D271B6D18B662D091AA928B60C6D136977F480AE7E20EA08502B3C65B1A23CDD32CEAB7C9B328E66B4CD4979028EFF6F7F54E5E596E4A22AF409DD3DD3D11CFAB6F7C8ABBE131D3FFAE1BA7E0E6E517A139AECC3DC1336ADE40856BDD06248BABB5FDE5C0DEE978BB783F91526A7CBCB1B8C
311
4FB777F3E97236BEB858DC3571B2CAC3A0E934DD844694D0D9824A3217BEAF2BA48FAB017EF840B4DABCB7D9D93CBFAE8618858311F6A05DB61B6F92678C7D34F9B982BDE45145ABBCE434A7852626851ECC1FFE8560CCE81963D75739C9E8195A3EBD5F1F38839533F67D36E94EBF1FEC75AB0B93904795E8C72A8F0AC2F8
311
C1C6CC22392C8BCCE1D7C4A47DDA3ED3BC9A3717180CA64A7096A00C265E46454E358AE1193D48E654817ADD913E71578F33763FDB01519388D3C692478219992BA405A855C5BABFEEFD8699CE8C55D73EBAEDF0093FAE52F81E3873ED6346D72CA66A18A13F9B49A8560E2E750779CCFDA4C838466DBBA97D6F77196C7A1D
311
B91539677C727ED90AEE1C4019293136601E42746A63C2A0B6CD7D8FFF93E38D391ED1F81B55BAF565BFD03A531F8314B54EB9CB0266982777F40E89FABA5B93612DD343E4AC4BD6AB24B05A079AC8ACBE2818FB9C4937CBCF230C28DEEA9357F22A432CCFD734901464AE4C8283456085D359120DAA2EFEDC7C960217D9DC
311
BB67A080F7FBEEF2CD1F9B85C87351D8A5CD8DBB0E7BEB475C6E930D8A0335B712B5998E27D34D7D1B7017946D44141D92443D61019195AC05BA177EF0D25E19D187EC87566E644271C0D0D5D2738D6D0EA58E2EDDDA6AC0C1DC51500F39646E942663BA02E5AB1782512D0A132446F9F05F504B03041400060800004D4BA9
311
40000000000000000000000000350000006662782F30414330433542342D423139362D343530442D394638432D4634453545304641353939442F76657274696365732E62696E504B03041400060808004D4BA940F270F1330600000004000000360000006662782F30414330433542342D423139362D343530442D39463843
311
2D4634453545304641353939442F747269616E676C65732E62696E636660600000504B03041400060800004D4BA940000000000000000000000000370000006662782F30414330433542342D423139362D343530442D394638432D4634453545304641353939442F617474726962757465732E62696E504B03041400060808
311
004D4BA940D5987DFC8F00000041010000360000006662782F30414330433542342D423139362D343530442D394638432D4634453545304641353939442F6469726563746F72792E786D6C858F410EC2201045AF4266AF15DDB800BA74E7C21B903225242D6328188F2FA5C4183471359997F9FF81E89FF3C41E1816475E02
311
DF1F80A11FC8386F25A438EECEC07A250251FC3803E6F58C12560C4AD840E95E91C151A72936F496F35732D860FE635F62C8F2DA16B505C545B74125BAA2FA9E05D7CC053D063734D5C7665FD55B6B8D15D5E9BFEAFD8490FFA45E504B03041400060808004D4BA940F8965942FB000000A00100003B0000006662782F3041
311
4330433542342D423139362D343530442D394638432D4634453545304641353939442F7265736F75726365732F636F72652E786D6C8D50DB6A843010FD1599F768D45A758959BCF40FFA0321CEDAB06B22B9947E7EE36AA17D2B84CC702ECCE1B0EBD7FA483ED13A657407794A21412DCDACF4D241F037D24072E5CC1AE37F
311
C920D162C50E7618385BAC09DB0949A33D6A1F516D663C41E11C7A48E4232E1D38F981AB4845F051E1EEE926E45D2C98E669A4A38E33E76D0C901C47F61FB845678295E85876B09C85A0E653A3E67853DD145AE0FD34E66FE55490A91C5AF2520F3519C63627D338567D5F95056D6A96ED66CEBC5A7F324A8BC2E30CBCA079
311
41684568FB4EDB4BF11A1FA1CD855296EDF23FA6B0CDFF3405A57D599C710F9B039EC7204F82B36CEF2B8E679971EEDDF26F504B010214000A00000800004D4BA9403DEE336E79000000790000001B00000000000000000000000000000000006175746F6465736B2D64657369676E2D7061636B6167652E786D6C504B0102
311
14001400060808004D4BA940D486FD9CA0000000F40000001300000000000000000000000000B20000005B436F6E74656E745F54797065735D2E786D6C504B010214001400060808004D4BA940EB3D77DAEA0000007C010000080000000000000000000000000083010000636F72652E786D6C504B01021400140006080800
311
4D4BA94055019EA25F0000007C000000070000000000000000000000000093020000636E782E786D6C504B010214001400060808004D4BA940D02BD3D065010000020300000C00000000000000000000000000170300006662782F636F72652E786D6C504B010214001400060808004D4BA9402D8876707D0000009D000000
311
0B00000000000000000000000000A60400006662782F636E782E786D6C504B010214001400060808004D4BA940E9FCEA732C0100001502000031000000000000000000000000004C0500006662782F30414330433542342D423139362D343530442D394638432D4634453545304641353939442F636F72652E786D6C504B01
311
0214001400060808004D4BA9407531065F4D010000330300003000000000000000000000000000C70600006662782F30414330433542342D423139362D343530442D394638432D4634453545304641353939442F636E782E786D6C504B010214001400060808004D4BA940E875164CA2050000801000003400000000000000
311
000000000000620800006662782F30414330433542342D423139362D343530442D394638432D4634453545304641353939442F6F626A656374732E786D6C504B010214001400060800004D4BA9400000000000000000000000003500000000000000000000000000560E00006662782F30414330433542342D423139362D34
311
3530442D394638432D4634453545304641353939442F76657274696365732E62696E504B010214001400060808004D4BA940F270F13306000000040000003600000000000000000000000000A90E00006662782F30414330433542342D423139362D343530442D394638432D4634453545304641353939442F747269616E67
311
6C65732E62696E504B010214001400060800004D4BA9400000000000000000000000003700000000000000000000000000030F00006662782F30414330433542342D423139362D343530442D394638432D4634453545304641353939442F617474726962757465732E62696E504B010214001400060808004D4BA940D5987D
311
FC8F000000410100003600000000000000000000000000580F00006662782F30414330433542342D423139362D343530442D394638432D4634453545304641353939442F6469726563746F72792E786D6C504B010214001400060808004D4BA940F8965942FB000000A00100003B000000000000000000000000003B100000
311
6662782F30414330433542342D423139362D343530442D394638432D4634453545304641353939442F7265736F75726365732F636F72652E786D6C504B0506000000000E000E00800400008F1100000000
310
504B03040A00000800004D4BA9403DEE336E79000000790000001B0000006175746F6465736B2D64657369676E2D7061636B6167652E786D6C3C3F786D6C2076657273696F6E3D22312E302220656E636F64696E673D227574662D3822203F3E3C666F726D6174733E3C666F726D61743E687474703A2F2F736368656D612E
310
6175746F6465736B2E636F6D2F64657369676E2D7061636B6167652F323030393C2F666F726D61743E3C2F666F726D6174733E504B03041400060808004D4BA940D486FD9CA0000000F4000000130000005B436F6E74656E745F54797065735D2E786D6C7D8EC10E82300C865F65E91D8A1E8C310C0EEA1BF002731658846E
310
D98AC1B77784ABF1D8FE5FBFBF75BBCE937A534CCEB38643598122B6FEE978D0B0485F9C41B54DDD7D022595594E1A469170414C76A4D9A4D207E29CF43ECE46F218070CC6BECC4078ACAA135ACF422C856C0E68EA1BF5669944DDD7BCDE7B1F8E415D77AECB980613C2E4AC91FC167A2B244592486606FC29C8FD7F045B9A
310
EF7053A7E60B504B03041400060808004D4BA9404CAE3760EA0000007C01000008000000636F72652E786D6C8D905D6EC3201084AF82F61D1B9C1FDB11260A717A825E0001715162B00C54397E71E248ED5B25A45D0DF3EDAE861D1FE31D7D9B3958EF3AA00501649CF2DABAA18314AFB80174E46CF63EFEB2017272341D2C
310
327036CC3E4DABA4BC8BC6C5AC3AAFCD2ACA104C04A4EEB9E920A82F33CA42A6981DE1564C52DDE4600AFAEE329C92D5E8B5C4EA3CCF5EAD9981EF7AB13D5D6A82C9E6D4E06D4D2F58D44D8FC5B9A21F44F442B47B562E3067D18EEFFD6A36321A0DBC22B4C2648749FB49DA43B5CF0F93E640082B17FB1F284DFA9F50B22E
310
6EAAF5DC171680D37CC8F383B372C922976750B92EB9F11F504B03041400060808004D4BA94055019EA25F0000007C00000007000000636E782E786D6C4DCB3B0E80201045D1AD90E915ED2CF8AC45050C11660C8261F98AB1B07AC9C97D42D718D865D3E909258CFD00CCE24AC6E326A164D74DC0B4128928FF326038472B
310
A13128B1252AC747C6BAB984FC68F0B87FE8960A5C09FE86CFB69FBA01504B03041400060808004D4BA9402EF1785665010000020300000C0000006662782F636F72652E786D6C8D52ED8E8320107C15C27F04ED778334F5DA7B827B01AAD423553008A68F7FEB47E3F5D234178D92999DDDD9517EB8D715EA946BB535298E
310
23869132B92DB429531CFC956C313A08EEACF5BFCA3032B25629EE612C78E96C682628B7C62BE30135B6501328DB56798CF20A0E296EF36F55CB48060F15ED2D6A647E93A58AE20868A813BCF50E0CA07148FFC4E27AB9733AE28287A08B89D5054CD357AD1C16AB53B63C9E378CB0C5714B969BF84CB2CDF644B28F24FE64
310
D929CB766B4E7BB1E05ED70F77B953D2AB028B84C509612BC2765F6CB74FD67013B6DD33C6695FFE240A4DF14F51D0C62F92C9EE286BB188C1C840FCD91622F2A8951DF8A182D33E44780D093F070D8140C85E5EAAC71E37803A957BEB96C01436CC5427ABA0602A43C3C5E9C842E7A1016CF6B24FF2A6CFFB1EF001A529C1
310
9AF470BC04DF4FE7E3D4298A4639D2F93B32D6D5B29ACD8D16E7E73CE8A53CB79575FF51D369553A8549FBBF57FC00504B03041400060808004D4BA940F0B5C7147F0000009D0000000B0000006662782F636E782E786D6C4DCCD10E82201886E15B61FF392945BFB6012E15EFC3253A2642236C5D7EDA3CE8E8DB9E7D7B45
310
F5591C799BF8B2C14B60A71C88F18F30583F4958D3484B2095123184F47703E2FBC548D819949862589F070D66EC57973675D6CF07B6A879D722A3F9150BCA35725AEA1A6973BB3778AED9A52B38644A64BFD2B67B587D01504B03041400060808004D4BA940C6BAC1BB2901000014020000310000006662782F4436453446
310
4436312D303536372D344536342D384542362D4339414336324231334637342F636F72652E786D6C8D515B6EC32010BC0AE22BFDC006C7254E84899AD7097A0162931425068B4795E377A91DA9FD8B8400CDCECC8E76C5F631DCD1B7F6C138DB6256508CB4ED5C6FECB5C5295E4883D1560AEF5CFC43C3C8AA41B738C3588A
310
AB77699CA1CED9A86D04D4BA5ECFA00A41478CBA3B7C5A1CBA2F3DA842A5088C702B46D5DDD45517AC8032F0A408D143003435C93796077EAC4F07CE087DE72B521F794D9AE38E93FDFA63CFAB1D5B9E56B52827A11429997E969B1EE2988BD1FE55932C96229AE119BFF35A45DD63595156410042D79F74BDA9381C429B0D
310
A5A2CCF47FA234F62F8A92B17159CD712759C09289722A48D1BB74BE3FC3E8C7E87C44B9DF22E8EE0D4B5A50D6D44D950730516100E0C9EBD93344E761C08BDB19D8CBD998D752947947F0FC2E10DEBC4FF903504B03041400060808004D4BA9401396C9485401000033030000300000006662782F44364534464436312D30
310
3536372D344536342D384542362D4339414336324231334637342F636E782E786D6CBD93CD6EC32010845F0571F76F52CB8930917AE813F4D02B864D4383C1025C356FDF2521692E3954AA2A59C89A1D66569F6CB6FB9A0CF9041FB4B3036DCA9A12B0D2296DDF07BAC47DD153B2E3CC3B17EF6C945831C140934C397BF76E
310
99B3A4602F16135135DA1EB3E821B8C54B0828A79BC438290C06802D1614611A412950E466C4B73D785C05C5F144E201C8CBF31B71E307C81858955238AB520767E9CC4D77264AA411210C34C8034CA2144B740AC2B154228AB229AF5D0F76FA4922E9C2B572F19AA4F281A693F2BC51891C598543CE42F4482F9BE26906CA
310
C53C1B2D4544C8D5D978F170B6681BBB75F66A04EFD1BD6ABBBEC7B0F38CB3A827C80EE941445094B775D316F553516F5EEBCDB6EDF029EA7E5BD7AC4A76CE46E74CBE8431E0DD4CA4B3116CA4BC61551A3FC2977D44698FAC9D3FFD022402C8AD173AB78CBFE4D374ABF5FA1FF954E7EF1B7179FC0BF837504B0304140006
310
0808004D4BA94047C24B3562070000991B0000340000006662782F44364534464436312D303536372D344536342D384542362D4339414336324231334637342F6F626A656374732E786D6CED595B739B3814FE2B0CFBB2FB606C62BB4D76083B899D743C9DB49D7ADBD907CF3032C8441B211849E4B2BF7E8F2E602026C1DB
310
EC5B1F6C404847E77CE7AA43F0C763469D7BCC05C9D9B9EB7B13D7C12CCE13C2D273B794BBD1A9EBFC11063CCF65639AEB3094E173570DBB6190F2BC2CEC508277A8A4B2337A7DF9972362CCB0EBC4140971EE8AF81667C843A5CC132CEEBC0449E4A5BB47CFF7CCC436D994A3E2B643B4401C33099CC238032A8E61CA6F3F
310
4EDC71188CD5FB3050FF76D674D0AC59FFACB196BACD25614222163F63A943663A88A5A93F5B5E9DCCCF46F3D96C3A9ABD3BF14797D797CB91FF7E3A59BC5B2CCE2EAECE80BD6D9E532B53820BCC12D0DF931BFAC158BDA945B7081CE23ACE19C3B10612A0D2627509122C60AB067C93F6A3AF246ABCD612369E67EABD65A1
310
313C6D53E99B350C88165D10C46E57495C5D9BF2E5DBBF417031C428B9C012B8159283762D3C1CBCC20D27C1D88C86C176AF0B229C0C49CC09A20E255B8E382805A6AA296160165832CA3938907294045A73E675DBB6C0335F779D435CEE4A4A9567B8A176AC08DC0F4BA13923FF60BEE7BE890CF004D29684C953CBA57C2A
310
B01B9E05633D1806EA323DB12F0D90CE8EA2546844CCDB8EA00BE5FAABA51B7EBCDE3EAE553838BC79C1F30273A98C4EE951F305866CAF0A25BBAD3F48736A01086340B52BF7A07C05E43F41F4D8B3027AE3E471F638B37325474CEC729E816E9C89339AC0DFC4F1F5BFBA6FDC05E37A715B7B7D78829B2AA84E7F1CCFB60C
310
1A2BCB7F03CE30B80783CFF9D4BE5AC788823DDF100600292371680E4310DA77DB47375C41E084400FAB100D7D1019D8BD87DB606CC9ECB552B997F53A0688DA3DA6439404B0698B04367AF4F401B20727F15E4D4D11FBE09DBF89B95E2CD71FD725DFA118DF589F5EE21D614442D63CCC500BF3964477F8E921E70908FA1C
310
EF7513EFCC6E25006D85B9023EAD40500FFB9D5B1BC4B02ECD55B8095ED9018450B9BA41FF868818538A18CECB6ADF3ABA2943AD3DDED60C6E7862209E9E744C98E37BA2AA0A709AFD8C16A390F7634E0A05A21B7E3092D541D3EB91EEDBEA1358643DBF67D68A41E86588FEA983D6011C5A965D216D81A805DEEEC3799CD3
310
9C47DBA7C8443A176A0960A3ED2DDF5B4421D61B25292AE041DAEFAA90921A69A384EC76A580B87A80C5EFAB45D31C26DED49F3BCDFF8E33CE20DA82EF226EFDAEB347443294E2688792BEED9ABBD5B48526D9439AE31D05B9C83D914F1192D124C1E931D01C45FCEC4DA9A7341782302C205F1D04BF89C6C4834062B459B1
310
ACB4DA019A8828C312D1631050647AC0D56947D7B831940EAFF3585BEF4B1A6B12FD9F2C8223A82573161128452187BCCAB8EFCD2186B4D1352877F0056BAB686B3168092544FC143D6092DECA635037E47B708FE14852CA282F500C663D80EC335F514AEDF0BE45F19DCA1F515CD2B7321081E92E22949659043FC2E0E431
310
C4B5EBC0F4220A0DE226F6499C41518664C9876CF26E3E79B68FA919BA21B0B1D18E5008DB51868A1ED45B0151D7234E0DBEA5DEA3D46D991511CAF2920D32146FDAF5264BBEAB56457620BFAA5484B2B1226C09860161B2CEAA55CC0653D78115DC4807AAA748A0ACA0E614F64AE2F16B6FD2947B37E0D64FDF76830C0ABF
310
1EED3523EAAC82C1F2D82A0CC40392F1AD1BAEF5757409F57782937DAAAF6ACD66050888A9485E726255F46D05E58DADD1DCF00649B1F960B26E75FDB6F2A0FB118C610DD42EF5C295023AC34C225599DCA81BFA1541086ED130E32B95538FA1729124BA6A44F49AF4A9B35546B436CD8857DC629667F0631BC2625A267883
310
127117DD481AAD8962DD4AE965A4C2F845013F7F5877E0819101227D51051E7EE8ACB5A30B552E1D24226FCB6CCB108120D8122D35BAF10A965A8D545AAEAFEA4C017517189855F1ECE7C9A2D98EF879B248AD61FCD8C982E65B44F7D1A691CD6365D6479D02EAF4A4A8BCC52940771D6AAA751231B9DC8A6F7D2982985805
310
F9C1C55815330CC13E8EFF73D2EE4B8266BB0EFFC7256DFF59C1715452694D564DAA0385EBAA99C2A00B7B75BDBC381B5D2F17EF47B33368CD9E9E5E407FF6F26A76B29C4EE6F3C5558DA6F6D330A863994E5DF06C625A35AC9E2C06D094153925091CE61327C510F2251CE90774CF798605E4CE66AF3BB13DF901ABEF4D9B
310
53A22DC51527B708FAC3544056078CCA58B6C79D5FA03329E19C7DEE42CFC8BB833F6B95AE0389E7DC854E81243116DE16BA4CAA9FA78943C6D5A9DF12037C104B5546348BEAE77A95C2A615FDEB2943B28095ABD5C280BAAD80E657AB41A179B33CC547095EB1E32009B7DB5242B16664D90FD4C2E86DF6EA37B251C2EEEC
310
D68FE0BA2F8BE57B7A4E0B91415F0C5E3402437524114F75BB5B316659BA587E19439BCD597D760A5AA6A0CBE194461C833197AA9E022B02ABB0340B24C15417BF6FBEF01CBEF0648E2E8A9C5F1F4FDFFDB659E459963333B4B980435902DF899CF52D7CF54936503B60D55B179B93897FB2D13D6DDB668FB648604F154530
310
50D5124A908EC9815D3EEB4FD9EEE558A9A2337DB5746C109D03516DBBCF5ABCE61B97033EA4BEA6288FD17E5E49FB625B7BACA7824D70684887FF02504B03041400060800004D4BA940000000000000000000000000350000006662782F44364534464436312D303536372D344536342D384542362D433941433632423133
310
4637342F76657274696365732E62696E504B03041400060808004D4BA940F270F1330600000004000000360000006662782F44364534464436312D303536372D344536342D384542362D4339414336324231334637342F747269616E676C65732E62696E636660600000504B03041400060800004D4BA94000000000000000
310
0000000000370000006662782F44364534464436312D303536372D344536342D384542362D4339414336324231334637342F617474726962757465732E62696E504B03041400060808004D4BA940D5987DFC8F00000041010000360000006662782F44364534464436312D303536372D344536342D384542362D4339414336
310
324231334637342F6469726563746F72792E786D6C858F410EC2201045AF4266AF15DDB800BA74E7C21B903225242D6328188F2FA5C4183471359997F9FF81E89FF3C41E1816475E02DF1F80A11FC8386F25A438EECEC07A250251FC3803E6F58C12560C4AD840E95E91C151A72936F496F35732D860FE635F62C8F2DA16B5
310
05C545B74125BAA2FA9E05D7CC053D063734D5C7665FD55B6B8D15D5E9BFEAFD8490FFA45E504B03041400060808004D4BA940C843E9C7FD000000A00100003B0000006662782F44364534464436312D303536372D344536342D384542362D4339414336324231334637342F7265736F75726365732F636F72652E786D6C8D
310
505B6E833010BC0ADA7F83210981C8380A2539412F60990DB5126CE447D5E3D70E546AFF2A59DED53CB4A361E7AFF9997DA275CAE80ECA9C42865A9A51E9A983E0EFA481ECCC9935C6FF9241A6C58C1D2418389BAC09CB0649A33D6A1F516D46DC40E11C7AC8E4332E1D38F981B3C845F051E11EF922E4434C989779A4A38E
310
33E76D0C90AD47D20FDCA233C14A74AC5859CE4250E3A65163BCA9EE0A2DF0C3D0EF2FD7FA46E8EED290FDB1BC92FED80CA47FABCA1BED87BE6F6B562433675ECD3F19A545E171045ED1B222F44068FB4EDB5355C7476873A2941549FEC71496F19FA6A0B4DF555BDCD5E6809731C88BE0AC487DC5F12A33CED42DFF06504B
310
010214000A00000800004D4BA9403DEE336E79000000790000001B00000000000000000000000000000000006175746F6465736B2D64657369676E2D7061636B6167652E786D6C504B010214001400060808004D4BA940D486FD9CA0000000F40000001300000000000000000000000000B20000005B436F6E74656E745F54
310
797065735D2E786D6C504B010214001400060808004D4BA9404CAE3760EA0000007C010000080000000000000000000000000083010000636F72652E786D6C504B010214001400060808004D4BA94055019EA25F0000007C000000070000000000000000000000000093020000636E782E786D6C504B010214001400060808
310
004D4BA9402EF1785665010000020300000C00000000000000000000000000170300006662782F636F72652E786D6C504B010214001400060808004D4BA940F0B5C7147F0000009D0000000B00000000000000000000000000A60400006662782F636E782E786D6C504B010214001400060808004D4BA940C6BAC1BB290100
310
001402000031000000000000000000000000004E0500006662782F44364534464436312D303536372D344536342D384542362D4339414336324231334637342F636F72652E786D6C504B010214001400060808004D4BA9401396C94854010000330300003000000000000000000000000000C60600006662782F4436453446
310
4436312D303536372D344536342D384542362D4339414336324231334637342F636E782E786D6C504B010214001400060808004D4BA94047C24B3562070000991B00003400000000000000000000000000680800006662782F44364534464436312D303536372D344536342D384542362D4339414336324231334637342F6F
310
626A656374732E786D6C504B010214001400060800004D4BA94000000000000000000000000035000000000000000000000000001C1000006662782F44364534464436312D303536372D344536342D384542362D4339414336324231334637342F76657274696365732E62696E504B010214001400060808004D4BA940F270
310
F133060000000400000036000000000000000000000000006F1000006662782F44364534464436312D303536372D344536342D384542362D4339414336324231334637342F747269616E676C65732E62696E504B010214001400060800004D4BA9400000000000000000000000003700000000000000000000000000C91000
310
006662782F44364534464436312D303536372D344536342D384542362D4339414336324231334637342F617474726962757465732E62696E504B010214001400060808004D4BA940D5987DFC8F0000004101000036000000000000000000000000001E1100006662782F44364534464436312D303536372D344536342D3845
310
42362D4339414336324231334637342F6469726563746F72792E786D6C504B010214001400060808004D4BA940C843E9C7FD000000A00100003B00000000000000000000000000011200006662782F44364534464436312D303536372D344536342D384542362D4339414336324231334637342F7265736F75726365732F63
310
6F72652E786D6C504B0506000000000E000E0080040000571300000000
  0
XRECORD
  5
4E5
102
{ACAD_REACTORS
330
4E0
102
}
330
4E0
100
AcDbXrecord
280
     1
270
     1
271
     1
  0
XRECORD
  5
4E4
102
{ACAD_REACTORS
330
4E0
102
}
330
4E0
100
AcDbXrecord
280
     1
270
     1
271
     1
  0
XRECORD
  5
4E6
102
{ACAD_REACTORS
330
4E0
102
}
330
4E0
100
AcDbXrecord
280
     1
270
     1
271
     1
  0
XRECORD
  5
4E3
102
{ACAD_REACTORS
330
4E0
102
}
330
4E0
100
AcDbXrecord
280
     1
270
     1
271
     1
  0
CELLSTYLEMAP
  5
528
102
{ACAD_REACTORS
330
527
102
}
330
527
100
AcDbCellStyleMap
 90
        3
300
CELLSTYLE
  1
TABLEFORMAT_BEGIN
 90
        5
170
     1
 91
        0
 92
    32768
 62
   257
 93
        1
300
CONTENTFORMAT
  1
CONTENTFORMAT_BEGIN
 90
        0
 91
        0
 92
      512
 93
        0
300

 40
0.0
140
1.0
 94
        5
 62
     0
340
11
144
0.25
309
CONTENTFORMAT_END
171
     0
 94
        0
309
TABLEFORMAT_END
  1
CELLSTYLE_BEGIN
 90
        1
 91
        1
300
_TITLE
309
CELLSTYLE_END
300
CELLSTYLE
  1
TABLEFORMAT_BEGIN
 90
        5
170
     1
 91
        0
 92
        0
 62
   257
 93
        1
300
CONTENTFORMAT
  1
CONTENTFORMAT_BEGIN
 90
        0
 91
        0
 92
      512
 93
        0
300

 40
0.0
140
1.0
 94
        5
 62
     0
340
11
144
0.18
309
CONTENTFORMAT_END
171
     0
 94
        0
309
TABLEFORMAT_END
  1
CELLSTYLE_BEGIN
 90
        2
 91
        1
300
_HEADER
309
CELLSTYLE_END
300
CELLSTYLE
  1
TABLEFORMAT_BEGIN
 90
        5
170
     1
 91
        0
 92
        0
 62
   257
 93
        1
300
CONTENTFORMAT
  1
CONTENTFORMAT_BEGIN
 90
        0
 91
        0
 92
      512
 93
        0
300

 40
0.0
140
1.0
 94
        2
 62
     0
340
11
144
0.18
309
CONTENTFORMAT_END
171
     0
 94
        0
309
TABLEFORMAT_END
  1
CELLSTYLE_BEGIN
 90
        3
 91
        2
300
_DATA
309
CELLSTYLE_END
  0
ENDSEC
  0
EOF
